  0
SECTION
  2
HEADER
  9
$ACADVER
  1
AC1032
  9
$ACADMAINTVER
 90
      174
  9
$DWGCODEPAGE
  3
ANSI_1252
  9
$LASTSAVEDBY
  1
VBlohS
  9
$REQUIREDVERSIONS
160
                 0
  9
$INSBASE
 10
0.0
 20
0.0
 30
0.0
  9
$EXTMIN
 10
-0.0225
 20
0.0
 30
0.0
  9
$EXTMAX
 10
0.0225
 20
0.135
 30
0.0
  9
$LIMMIN
 10
0.0
 20
0.0
  9
$LIMMAX
 10
12.0
 20
9.0
  9
$ORTHOMODE
 70
     0
  9
$REGENMODE
 70
     1
  9
$FILLMODE
 70
     1
  9
$QTEXTMODE
 70
     0
  9
$MIRRTEXT
 70
     0
  9
$LTSCALE
 40
1.0
  9
$ATTMODE
 70
     1
  9
$TEXTSIZE
 40
0.2
  9
$TRACEWID
 40
0.05
  9
$TEXTSTYLE
  7
Standard
  9
$CLAYER
  8
0
  9
$CELTYPE
  6
CONTINUOUS
  9
$CECOLOR
 62
   256
  9
$CELTSCALE
 40
1.0
  9
$DISPSILH
 70
     0
  9
$DIMSCALE
 40
1.0
  9
$DIMASZ
 40
0.18
  9
$DIMEXO
 40
0.0625
  9
$DIMDLI
 40
0.38
  9
$DIMRND
 40
0.0
  9
$DIMDLE
 40
0.0
  9
$DIMEXE
 40
0.18
  9
$DIMTP
 40
0.0
  9
$DIMTM
 40
0.0
  9
$DIMTXT
 40
0.18
  9
$DIMCEN
 40
0.09
  9
$DIMTSZ
 40
0.0
  9
$DIMTOL
 70
     0
  9
$DIMLIM
 70
     0
  9
$DIMTIH
 70
     1
  9
$DIMTOH
 70
     1
  9
$DIMSE1
 70
     0
  9
$DIMSE2
 70
     0
  9
$DIMTAD
 70
     0
  9
$DIMZIN
 70
     0
  9
$DIMBLK
  1

  9
$DIMASO
 70
     1
  9
$DIMSHO
 70
     1
  9
$DIMPOST
  1

  9
$DIMAPOST
  1

  9
$DIMALT
 70
     0
  9
$DIMALTD
 70
     2
  9
$DIMALTF
 40
25.4
  9
$DIMLFAC
 40
1.0
  9
$DIMTOFL
 70
     0
  9
$DIMTVP
 40
0.0
  9
$DIMTIX
 70
     0
  9
$DIMSOXD
 70
     0
  9
$DIMSAH
 70
     0
  9
$DIMBLK1
  1

  9
$DIMBLK2
  1

  9
$DIMSTYLE
  2
Standard
  9
$DIMCLRD
 70
     0
  9
$DIMCLRE
 70
     0
  9
$DIMCLRT
 70
     0
  9
$DIMTFAC
 40
1.0
  9
$DIMGAP
 40
0.09
  9
$DIMJUST
 70
     0
  9
$DIMSD1
 70
     0
  9
$DIMSD2
 70
     0
  9
$DIMTOLJ
 70
     1
  9
$DIMTZIN
 70
     0
  9
$DIMALTZ
 70
     0
  9
$DIMALTTZ
 70
     0
  9
$DIMUPT
 70
     0
  9
$DIMDEC
 70
     4
  9
$DIMTDEC
 70
     4
  9
$DIMALTU
 70
     2
  9
$DIMALTTD
 70
     2
  9
$DIMTXSTY
  7
Standard
  9
$DIMAUNIT
 70
     0
  9
$DIMADEC
 70
     0
  9
$DIMALTRND
 40
0.0
  9
$DIMAZIN
 70
     0
  9
$DIMDSEP
 70
    46
  9
$DIMATFIT
 70
     3
  9
$DIMFRAC
 70
     0
  9
$DIMLDRBLK
  1

  9
$DIMLUNIT
 70
     2
  9
$DIMLWD
 70
    -2
  9
$DIMLWE
 70
    -2
  9
$DIMTMOVE
 70
     0
  9
$DIMFXL
 40
1.0
  9
$DIMFXLON
 70
     0
  9
$DIMJOGANG
 40
0.7853981633974483
  9
$DIMTFILL
 70
     0
  9
$DIMTFILLCLR
 70
     0
  9
$DIMARCSYM
 70
     0
  9
$DIMLTYPE
  6

  9
$DIMLTEX1
  6

  9
$DIMLTEX2
  6

  9
$DIMTXTDIRECTION
 70
     0
  9
$LUNITS
 70
     2
  9
$LUPREC
 70
     4
  9
$SKETCHINC
 40
0.1
  9
$FILLETRAD
 40
0.0
  9
$AUNITS
 70
     0
  9
$AUPREC
 70
     0
  9
$MENU
  1
.
  9
$ELEVATION
 40
0.0
  9
$PELEVATION
 40
0.0
  9
$THICKNESS
 40
0.0
  9
$LIMCHECK
 70
     0
  9
$CHAMFERA
 40
0.0
  9
$CHAMFERB
 40
0.0
  9
$CHAMFERC
 40
0.0
  9
$CHAMFERD
 40
0.0
  9
$SKPOLY
 70
     0
  9
$TDCREATE
 40
2459984.454861111
  9
$TDUCREATE
 40
2459984.413194444
  9
$TDUPDATE
 40
2459984.458449074
  9
$TDUUPDATE
 40
2459984.416782408
  9
$TDINDWG
 40
0.0028587963
  9
$TDUSRTIMER
 40
0.0028587963
  9
$USRTIMER
 70
     1
  9
$ANGBASE
 50
0.0
  9
$ANGDIR
 70
     0
  9
$PDMODE
 70
     0
  9
$PDSIZE
 40
0.0
  9
$PLINEWID
 40
0.0
  9
$SPLFRAME
 70
     0
  9
$SPLINETYPE
 70
     6
  9
$SPLINESEGS
 70
     8
  9
$HANDSEED
  5
4EA
  9
$SURFTAB1
 70
     6
  9
$SURFTAB2
 70
     6
  9
$SURFTYPE
 70
     6
  9
$SURFU
 70
     6
  9
$SURFV
 70
     6
  9
$UCSBASE
  2

  9
$UCSNAME
  2

  9
$UCSORG
 10
0.0
 20
0.0
 30
0.0
  9
$UCSXDIR
 10
1.0
 20
0.0
 30
0.0
  9
$UCSYDIR
 10
0.0
 20
1.0
 30
0.0
  9
$UCSORTHOREF
  2

  9
$UCSORTHOVIEW
 70
     0
  9
$UCSORGTOP
 10
0.0
 20
0.0
 30
0.0
  9
$UCSORGBOTTOM
 10
0.0
 20
0.0
 30
0.0
  9
$UCSORGLEFT
 10
0.0
 20
0.0
 30
0.0
  9
$UCSORGRIGHT
 10
0.0
 20
0.0
 30
0.0
  9
$UCSORGFRONT
 10
0.0
 20
0.0
 30
0.0
  9
$UCSORGBACK
 10
0.0
 20
0.0
 30
0.0
  9
$PUCSBASE
  2

  9
$PUCSNAME
  2

  9
$PUCSORG
 10
0.0
 20
0.0
 30
0.0
  9
$PUCSXDIR
 10
1.0
 20
0.0
 30
0.0
  9
$PUCSYDIR
 10
0.0
 20
1.0
 30
0.0
  9
$PUCSORTHOREF
  2

  9
$PUCSORTHOVIEW
 70
     0
  9
$PUCSORGTOP
 10
0.0
 20
0.0
 30
0.0
  9
$PUCSORGBOTTOM
 10
0.0
 20
0.0
 30
0.0
  9
$PUCSORGLEFT
 10
0.0
 20
0.0
 30
0.0
  9
$PUCSORGRIGHT
 10
0.0
 20
0.0
 30
0.0
  9
$PUCSORGFRONT
 10
0.0
 20
0.0
 30
0.0
  9
$PUCSORGBACK
 10
0.0
 20
0.0
 30
0.0
  9
$USERI1
 70
     0
  9
$USERI2
 70
     0
  9
$USERI3
 70
     0
  9
$USERI4
 70
     0
  9
$USERI5
 70
     0
  9
$USERR1
 40
0.0
  9
$USERR2
 40
0.0
  9
$USERR3
 40
0.0
  9
$USERR4
 40
0.0
  9
$USERR5
 40
0.0
  9
$WORLDVIEW
 70
     1
  9
$SHADEDGE
 70
     3
  9
$SHADEDIF
 70
    70
  9
$TILEMODE
 70
     1
  9
$MAXACTVP
 70
    64
  9
$PINSBASE
 10
0.0
 20
0.0
 30
0.0
  9
$PLIMCHECK
 70
     0
  9
$PEXTMIN
 10
1.000000000000000E+20
 20
1.000000000000000E+20
 30
1.000000000000000E+20
  9
$PEXTMAX
 10
-1.000000000000000E+20
 20
-1.000000000000000E+20
 30
-1.000000000000000E+20
  9
$PLIMMIN
 10
0.0
 20
0.0
  9
$PLIMMAX
 10
12.0
 20
9.0
  9
$UNITMODE
 70
     0
  9
$VISRETAIN
 70
     1
  9
$PLINEGEN
 70
     0
  9
$PSLTSCALE
 70
     1
  9
$TREEDEPTH
 70
  3020
  9
$CMLSTYLE
  2
STANDARD
  9
$CMLJUST
 70
     0
  9
$CMLSCALE
 40
1.0
  9
$PROXYGRAPHICS
 70
     1
  9
$MEASUREMENT
 70
     0
  9
$CELWEIGHT
370
    -1
  9
$ENDCAPS
280
     0
  9
$JOINSTYLE
280
     0
  9
$LWDISPLAY
290
     0
  9
$INSUNITS
 70
     6
  9
$HYPERLINKBASE
  1

  9
$STYLESHEET
  1

  9
$XEDIT
290
     1
  9
$CEPSNTYPE
380
     0
  9
$PSTYLEMODE
290
     1
  9
$FINGERPRINTGUID
  2
{A82D6D78-88D4-AF46-87A1-D652DD8F5504}
  9
$VERSIONGUID
  2
{E6A9B737-043E-0D48-AD57-266B6C3CD442}
  9
$EXTNAMES
290
     1
  9
$PSVPSCALE
 40
0.0
  9
$OLESTARTUP
290
     0
  9
$SORTENTS
280
   127
  9
$INDEXCTL
280
     0
  9
$HIDETEXT
280
     0
  9
$XCLIPFRAME
280
     2
  9
$HALOGAP
280
     0
  9
$OBSCOLOR
 70
   257
  9
$OBSLTYPE
280
     0
  9
$INTERSECTIONDISPLAY
280
     0
  9
$INTERSECTIONCOLOR
 70
   257
  9
$DIMASSOC
280
     1
  9
$PROJECTNAME
  1

  9
$CAMERADISPLAY
290
     0
  9
$LENSLENGTH
 40
50.0
  9
$CAMERAHEIGHT
 40
0.0
  9
$STEPSPERSEC
 40
2.0
  9
$STEPSIZE
 40
6.0
  9
$3DDWFPREC
 40
2.0
  9
$PSOLWIDTH
 40
0.25
  9
$PSOLHEIGHT
 40
4.0
  9
$LOFTANG1
 40
1.570796326794896
  9
$LOFTANG2
 40
1.570796326794896
  9
$LOFTMAG1
 40
0.0
  9
$LOFTMAG2
 40
0.0
  9
$LOFTPARAM
 70
     7
  9
$LOFTNORMALS
280
     1
  9
$LATITUDE
 40
37.795
  9
$LONGITUDE
 40
-122.394
  9
$NORTHDIRECTION
 40
0.0
  9
$TIMEZONE
 70
 -8000
  9
$LIGHTGLYPHDISPLAY
280
     1
  9
$TILEMODELIGHTSYNCH
280
     1
  9
$CMATERIAL
347
477
  9
$SOLIDHIST
280
     0
  9
$SHOWHIST
280
     1
  9
$DWFFRAME
280
     2
  9
$DGNFRAME
280
     0
  9
$REALWORLDSCALE
290
     1
  9
$INTERFERECOLOR
 62
     1
  9
$INTERFEREOBJVS
345
499
  9
$INTERFEREVPVS
346
496
  9
$CSHADOW
280
     0
  9
$SHADOWPLANELOCATION
 40
0.0
  0
ENDSEC
  0
SECTION
  2
CLASSES
  0
CLASS
  1
ACDBDICTIONARYWDFLT
  2
AcDbDictionaryWithDefault
  3
ObjectDBX Classes
 90
        0
 91
        1
280
     0
281
     0
  0
CLASS
  1
MATERIAL
  2
AcDbMaterial
  3
ObjectDBX Classes
 90
     1153
 91
        3
280
     0
281
     0
  0
CLASS
  1
VISUALSTYLE
  2
AcDbVisualStyle
  3
ObjectDBX Classes
 90
     4095
 91
       24
280
     0
281
     0
  0
CLASS
  1
TABLESTYLE
  2
AcDbTableStyle
  3
ObjectDBX Classes
 90
     4095
 91
        1
280
     0
281
     0
  0
CLASS
  1
SCALE
  2
AcDbScale
  3
ObjectDBX Classes
 90
     1153
 91
       17
280
     0
281
     0
  0
CLASS
  1
MLEADERSTYLE
  2
AcDbMLeaderStyle
  3
ACDB_MLEADERSTYLE_CLASS
 90
     4095
 91
        1
280
     0
281
     0
  0
CLASS
  1
ACDBSECTIONVIEWSTYLE
  2
AcDbSectionViewStyle
  3
ObjectDBX Classes
 90
     1025
 91
        1
280
     0
281
     0
  0
CLASS
  1
ACDBDETAILVIEWSTYLE
  2
AcDbDetailViewStyle
  3
ObjectDBX Classes
 90
     1025
 91
        1
280
     0
281
     0
  0
CLASS
  1
RAPIDRTRENDERSETTINGS
  2
AcDbRapidRTRenderSettings
  3
ObjectDBX Classes
 90
     1024
 91
        7
280
     0
281
     0
  0
CLASS
  1
DICTIONARYVAR
  2
AcDbDictionaryVar
  3
ObjectDBX Classes
 90
        0
 91
        9
280
     0
281
     0
  0
CLASS
  1
CELLSTYLEMAP
  2
AcDbCellStyleMap
  3
ObjectDBX Classes
 90
     1152
 91
        2
280
     0
281
     0
  0
ENDSEC
  0
SECTION
  2
TABLES
  0
TABLE
  2
VPORT
  5
70
330
0
100
AcDbSymbolTable
 70
     1
  0
VPORT
  5
4CA
330
70
100
AcDbSymbolTableRecord
100
AcDbViewportTableRecord
  2
*Active
 70
     0
 10
0.0
 20
0.0
 11
1.0
 21
1.0
 12
-0.0003661899831684
 22
0.0690002408301713
 13
0.0
 23
0.0
 14
1.0
 24
1.0
 15
0.0
 25
0.0
 16
0.0
 26
0.0
 36
1.0
 17
0.0
 27
0.0
 37
0.0
 40
0.1350879095337085
 41
2.116201117318435
 42
50.0
 43
0.0
 44
0.0
 50
0.0
 51
0.0
 71
     0
 72
  1000
 73
     1
 74
     3
 75
     0
 76
     0
 77
     0
 78
     0
281
     0
 65
     1
110
0.0
120
0.0
130
0.0
111
1.0
121
0.0
131
0.0
112
0.0
122
1.0
132
0.0
 79
     0
146
0.0
348
495
 60
     3
 61
     5
292
     1
282
     1
141
0.0
142
0.0
 63
   250
421
  3355443
1001
ACAD_NAV_VCDISPLAY
1070
     1
  0
ENDTAB
  0
TABLE
  2
LTYPE
  5
6C
330
0
100
AcDbSymbolTable
 70
     1
  0
LTYPE
  5
6D
330
6C
100
AcDbSymbolTableRecord
100
AcDbLinetypeTableRecord
  2
BYBLOCK
 70
     0
  3

 72
    65
 73
     0
 40
0.0
  0
LTYPE
  5
6E
330
6C
100
AcDbSymbolTableRecord
100
AcDbLinetypeTableRecord
  2
BYLAYER
 70
     0
  3

 72
    65
 73
     0
 40
0.0
  0
LTYPE
  5
6F
330
6C
100
AcDbSymbolTableRecord
100
AcDbLinetypeTableRecord
  2
CONTINUOUS
 70
     0
  3
Solid line
 72
    65
 73
     0
 40
0.0
  0
ENDTAB
  0
TABLE
  2
LAYER
  5
72
330
0
100
AcDbSymbolTable
 70
     2
  0
LAYER
  5
73
102
{ACAD_XDICTIONARY
360
4D4
102
}
330
72
100
AcDbSymbolTableRecord
100
AcDbLayerTableRecord
  2
0
 70
     0
 62
     7
  6
CONTINUOUS
370
    -3
390
475
347
487
348
0
  0
LAYER
  5
1D7
102
{ACAD_XDICTIONARY
360
4D6
102
}
330
72
100
AcDbSymbolTableRecord
100
AcDbLayerTableRecord
  2
(MATERIAL)EN AW-6063 (EP) T66
 70
     0
 62
     7
  6
CONTINUOUS
370
    -3
390
475
347
487
348
0
  0
ENDTAB
  0
TABLE
  2
STYLE
  5
74
330
0
100
AcDbSymbolTable
 70
     1
  0
STYLE
  5
473
330
74
100
AcDbSymbolTableRecord
100
AcDbTextStyleTableRecord
  2
Standard
 70
     0
 40
0.0
 41
1.0
 50
0.0
 71
     0
 42
0.2
  3

  4

  0
ENDTAB
  0
TABLE
  2
VIEW
  5
65
330
0
100
AcDbSymbolTable
 70
     0
  0
ENDTAB
  0
TABLE
  2
UCS
  5
66
330
0
100
AcDbSymbolTable
 70
     0
  0
ENDTAB
  0
TABLE
  2
APPID
  5
67
330
0
100
AcDbSymbolTable
 70
     2
  0
APPID
  5
68
330
67
100
AcDbSymbolTableRecord
100
AcDbRegAppTableRecord
  2
ACAD
 70
     0
  0
APPID
  5
4C9
330
67
100
AcDbSymbolTableRecord
100
AcDbRegAppTableRecord
  2
ACAD_NAV_VCDISPLAY
 70
     0
  0
ENDTAB
  0
TABLE
  2
DIMSTYLE
  5
71
330
0
100
AcDbSymbolTable
 70
     1
100
AcDbDimStyleTable
 71
     0
  0
DIMSTYLE
105
4C4
330
71
100
AcDbSymbolTableRecord
100
AcDbDimStyleTableRecord
  2
Standard
 70
     0
340
473
  0
ENDTAB
  0
TABLE
  2
BLOCK_RECORD
  5
69
330
0
100
AcDbSymbolTable
 70
     0
  0
BLOCK_RECORD
  5
6A
330
69
100
AcDbSymbolTableRecord
100
AcDbBlockTableRecord
  2
*MODEL_SPACE
340
4C6
 70
     0
280
     1
281
     0
  0
BLOCK_RECORD
  5
6B
330
69
100
AcDbSymbolTableRecord
100
AcDbBlockTableRecord
  2
*PAPER_SPACE
340
4C7
 70
     0
280
     1
281
     0
  0
ENDTAB
  0
ENDSEC
  0
SECTION
  2
BLOCKS
  0
BLOCK
  5
75
330
6A
100
AcDbEntity
  8
0
100
AcDbBlockBegin
  2
*MODEL_SPACE
 70
     0
 10
0.0
 20
0.0
 30
0.0
  3
*MODEL_SPACE
  1

  0
ENDBLK
  5
76
330
6A
100
AcDbEntity
  8
0
100
AcDbBlockEnd
  0
BLOCK
  5
77
330
6B
100
AcDbEntity
 67
     1
  8
0
100
AcDbBlockBegin
  2
*PAPER_SPACE
 70
     0
 10
0.0
 20
0.0
 30
0.0
  3
*PAPER_SPACE
  1

  0
ENDBLK
  5
78
330
6B
100
AcDbEntity
 67
     1
  8
0
100
AcDbBlockEnd
  0
ENDSEC
  0
SECTION
  2
ENTITIES
  0
POINT
  5
79
330
6A
100
AcDbEntity
  8
(MATERIAL)EN AW-6063 (EP) T66
 62
     0
100
AcDbPoint
 10
0.0
 20
0.0
 30
0.0
  0
POINT
  5
7A
330
6A
100
AcDbEntity
  8
0
100
AcDbPoint
 10
-0.0225
 20
0.0
 30
0.0
  0
POINT
  5
7B
330
6A
100
AcDbEntity
  8
0
100
AcDbPoint
 10
-0.018
 20
0.0023
 30
0.0
  0
POINT
  5
7C
330
6A
100
AcDbEntity
  8
0
100
AcDbPoint
 10
-0.0073
 20
0.0043
 30
0.0
  0
POINT
  5
7D
330
6A
100
AcDbEntity
  8
0
100
AcDbPoint
 10
-0.018
 20
0.0141
 30
0.0
  0
POINT
  5
7E
330
6A
100
AcDbEntity
  8
0
100
AcDbPoint
 10
-0.0093
 20
0.0141
 30
0.0
  0
POINT
  5
7F
330
6A
100
AcDbEntity
  8
0
100
AcDbPoint
 10
0.0225
 20
0.0
 30
0.0
  0
POINT
  5
80
330
6A
100
AcDbEntity
  8
0
100
AcDbPoint
 10
-0.0225
 20
0.0041
 30
0.0
  0
POINT
  5
81
330
6A
100
AcDbEntity
  8
0
100
AcDbPoint
 10
-0.018
 20
0.0041
 30
0.0
  0
POINT
  5
82
330
6A
100
AcDbEntity
  8
0
100
AcDbPoint
 10
-0.0225
 20
0.0123
 30
0.0
  0
POINT
  5
83
330
6A
100
AcDbEntity
  8
0
100
AcDbPoint
 10
-0.018
 20
0.0123
 30
0.0
  0
POINT
  5
84
330
6A
100
AcDbEntity
  8
0
100
AcDbPoint
 10
-0.0187
 20
0.0314
 30
0.0
  0
POINT
  5
85
330
6A
100
AcDbEntity
  8
0
100
AcDbPoint
 10
0.018
 20
0.0141
 30
0.0
  0
POINT
  5
86
330
6A
100
AcDbEntity
  8
0
100
AcDbPoint
 10
0.0093
 20
0.0141
 30
0.0
  0
POINT
  5
87
330
6A
100
AcDbEntity
  8
0
100
AcDbPoint
 10
0.0187
 20
0.0314
 30
0.0
  0
POINT
  5
88
330
6A
100
AcDbEntity
  8
0
100
AcDbPoint
 10
0.0207
 20
0.0334
 30
0.0
  0
POINT
  5
89
330
6A
100
AcDbEntity
  8
0
100
AcDbPoint
 10
0.018000001
 20
0.0293
 30
0.0
  0
POINT
  5
8A
330
6A
100
AcDbEntity
  8
0
100
AcDbPoint
 10
0.0073
 20
0.0273
 30
0.0
  0
POINT
  5
8B
330
6A
100
AcDbEntity
  8
0
100
AcDbPoint
 10
0.018
 20
0.0157
 30
0.0
  0
POINT
  5
8C
330
6A
100
AcDbEntity
  8
0
100
AcDbPoint
 10
-0.0207
 20
0.0334
 30
0.0
  0
POINT
  5
8D
330
6A
100
AcDbEntity
  8
0
100
AcDbPoint
 10
0.0033
 20
0.0023
 30
0.0
  0
POINT
  5
8E
330
6A
100
AcDbEntity
  8
0
100
AcDbPoint
 10
0.0093
 20
0.0157
 30
0.0
  0
POINT
  5
8F
330
6A
100
AcDbEntity
  8
0
100
AcDbPoint
 10
-0.0093
 20
0.0023
 30
0.0
  0
POINT
  5
90
330
6A
100
AcDbEntity
  8
0
100
AcDbPoint
 10
-0.0073
 20
0.0121
 30
0.0
  0
POINT
  5
91
330
6A
100
AcDbEntity
  8
0
100
AcDbPoint
 10
-0.018000001
 20
0.0293
 30
0.0
  0
POINT
  5
92
330
6A
100
AcDbEntity
  8
0
100
AcDbPoint
 10
-0.0073
 20
0.0273
 30
0.0
  0
POINT
  5
93
330
6A
100
AcDbEntity
  8
0
100
AcDbPoint
 10
-0.018
 20
0.0157
 30
0.0
  0
POINT
  5
94
330
6A
100
AcDbEntity
  8
0
100
AcDbPoint
 10
-0.0093
 20
0.0157
 30
0.0
  0
POINT
  5
95
330
6A
100
AcDbEntity
  8
0
100
AcDbPoint
 10
-0.018
 20
0.0266
 30
0.0
  0
POINT
  5
96
330
6A
100
AcDbEntity
  8
0
100
AcDbPoint
 10
-0.018
 20
0.0184
 30
0.0
  0
POINT
  5
97
330
6A
100
AcDbEntity
  8
0
100
AcDbPoint
 10
-0.009300001
 20
0.0293
 30
0.0
  0
POINT
  5
98
330
6A
100
AcDbEntity
  8
0
100
AcDbPoint
 10
-0.0073
 20
0.0177
 30
0.0
  0
POINT
  5
99
330
6A
100
AcDbEntity
  8
0
100
AcDbPoint
 10
-0.0225
 20
0.0266
 30
0.0
  0
POINT
  5
9A
330
6A
100
AcDbEntity
  8
0
100
AcDbPoint
 10
-0.0225
 20
0.0184
 30
0.0
  0
POINT
  5
9B
330
6A
100
AcDbEntity
  8
0
100
AcDbPoint
 10
0.018
 20
0.0266
 30
0.0
  0
POINT
  5
9C
330
6A
100
AcDbEntity
  8
0
100
AcDbPoint
 10
0.018
 20
0.0184
 30
0.0
  0
POINT
  5
9D
330
6A
100
AcDbEntity
  8
0
100
AcDbPoint
 10
0.009300001
 20
0.0293
 30
0.0
  0
POINT
  5
9E
330
6A
100
AcDbEntity
  8
0
100
AcDbPoint
 10
0.0073
 20
0.0177
 30
0.0
  0
POINT
  5
9F
330
6A
100
AcDbEntity
  8
0
100
AcDbPoint
 10
0.0225
 20
0.0266
 30
0.0
  0
POINT
  5
A0
330
6A
100
AcDbEntity
  8
0
100
AcDbPoint
 10
0.0225
 20
0.0184
 30
0.0
  0
POINT
  5
A1
330
6A
100
AcDbEntity
  8
0
100
AcDbPoint
 10
0.018
 20
0.0023
 30
0.0
  0
POINT
  5
A2
330
6A
100
AcDbEntity
  8
0
100
AcDbPoint
 10
0.0073
 20
0.0043
 30
0.0
  0
POINT
  5
A3
330
6A
100
AcDbEntity
  8
0
100
AcDbPoint
 10
0.0225
 20
0.0041
 30
0.0
  0
POINT
  5
A4
330
6A
100
AcDbEntity
  8
0
100
AcDbPoint
 10
0.018
 20
0.0041
 30
0.0
  0
POINT
  5
A5
330
6A
100
AcDbEntity
  8
0
100
AcDbPoint
 10
0.0225
 20
0.0123
 30
0.0
  0
POINT
  5
A6
330
6A
100
AcDbEntity
  8
0
100
AcDbPoint
 10
0.018
 20
0.0123
 30
0.0
  0
POINT
  5
A7
330
6A
100
AcDbEntity
  8
0
100
AcDbPoint
 10
0.0093
 20
0.0023
 30
0.0
  0
POINT
  5
A8
330
6A
100
AcDbEntity
  8
0
100
AcDbPoint
 10
0.0073
 20
0.0121
 30
0.0
  0
POINT
  5
A9
330
6A
100
AcDbEntity
  8
0
100
AcDbPoint
 10
-0.004129288
 20
0.016212132
 30
0.0
  0
POINT
  5
AA
330
6A
100
AcDbEntity
  8
0
100
AcDbPoint
 10
0.00417071
 20
0.016212133
 30
0.0
  0
POINT
  5
AB
330
6A
100
AcDbEntity
  8
0
100
AcDbPoint
 10
0.00487071
 20
0.029287868
 30
0.0
  0
POINT
  5
AC
330
6A
100
AcDbEntity
  8
0
100
AcDbPoint
 10
0.0053
 20
0.0043
 30
0.0
  0
POINT
  5
AD
330
6A
100
AcDbEntity
  8
0
100
AcDbPoint
 10
-0.0053
 20
0.0121
 30
0.0
  0
POINT
  5
AE
330
6A
100
AcDbEntity
  8
0
100
AcDbPoint
 10
-0.0033
 20
0.0023
 30
0.0
  0
POINT
  5
AF
330
6A
100
AcDbEntity
  8
0
100
AcDbPoint
 10
0.0033
 20
0.0141
 30
0.0
  0
POINT
  5
B0
330
6A
100
AcDbEntity
  8
0
100
AcDbPoint
 10
-0.0053
 20
0.0043
 30
0.0
  0
POINT
  5
B1
330
6A
100
AcDbEntity
  8
0
100
AcDbPoint
 10
0.0053
 20
0.0121
 30
0.0
  0
POINT
  5
B2
330
6A
100
AcDbEntity
  8
0
100
AcDbPoint
 10
-0.0033
 20
0.0141
 30
0.0
  0
POINT
  5
B3
330
6A
100
AcDbEntity
  8
0
100
AcDbPoint
 10
-0.003917155
 20
0.0157
 30
0.0
  0
POINT
  5
B4
330
6A
100
AcDbEntity
  8
0
100
AcDbPoint
 10
0.003958578
 20
0.015700001
 30
0.0
  0
POINT
  5
B5
330
6A
100
AcDbEntity
  8
0
100
AcDbPoint
 10
-0.004658577
 20
0.0298
 30
0.0
  0
POINT
  5
B6
330
6A
100
AcDbEntity
  8
0
100
AcDbPoint
 10
0.004658578
 20
0.0298
 30
0.0
  0
POINT
  5
B7
330
6A
100
AcDbEntity
  8
0
100
AcDbPoint
 10
-0.004787868
 20
0.02537071
 30
0.0
  0
POINT
  5
B8
330
6A
100
AcDbEntity
  8
0
100
AcDbPoint
 10
0.004787868
 20
0.019629291
 30
0.0
  0
POINT
  5
B9
330
6A
100
AcDbEntity
  8
0
100
AcDbPoint
 10
0.001475785
 20
0.019107058
 30
0.0
  0
POINT
  5
BA
330
6A
100
AcDbEntity
  8
0
100
AcDbPoint
 10
0.003392942
 20
0.021024215
 30
0.0
  0
POINT
  5
BB
330
6A
100
AcDbEntity
  8
0
100
AcDbPoint
 10
-0.003392943
 20
0.023975786
 30
0.0
  0
POINT
  5
BC
330
6A
100
AcDbEntity
  8
0
100
AcDbPoint
 10
-0.001475785
 20
0.025892943
 30
0.0
  0
POINT
  5
BD
330
6A
100
AcDbEntity
  8
0
100
AcDbPoint
 10
0.004787868
 20
0.02532929
 30
0.0
  0
POINT
  5
BE
330
6A
100
AcDbEntity
  8
0
100
AcDbPoint
 10
-0.004787868
 20
0.019629291
 30
0.0
  0
POINT
  5
BF
330
6A
100
AcDbEntity
  8
0
100
AcDbPoint
 10
-0.003392943
 20
0.021024215
 30
0.0
  0
POINT
  5
C0
330
6A
100
AcDbEntity
  8
0
100
AcDbPoint
 10
-0.001446817
 20
0.019094605
 30
0.0
  0
POINT
  5
C1
330
6A
100
AcDbEntity
  8
0
100
AcDbPoint
 10
0.003405396
 20
0.023946817
 30
0.0
  0
POINT
  5
C2
330
6A
100
AcDbEntity
  8
0
100
AcDbPoint
 10
0.001475785
 20
0.025892943
 30
0.0
  0
POINT
  5
C3
330
6A
100
AcDbEntity
  8
0
100
AcDbPoint
 10
-0.004870709
 20
0.029287868
 30
0.0
  0
POINT
  5
C4
330
6A
100
AcDbEntity
  8
0
100
AcDbPoint
 10
-0.0053
 20
0.019841423
 30
0.0
  0
POINT
  5
C5
330
6A
100
AcDbEntity
  8
0
100
AcDbPoint
 10
-0.0053
 20
0.025158578
 30
0.0
  0
POINT
  5
C6
330
6A
100
AcDbEntity
  8
0
100
AcDbPoint
 10
0.0053
 20
0.019841423
 30
0.0
  0
POINT
  5
C7
330
6A
100
AcDbEntity
  8
0
100
AcDbPoint
 10
0.0053
 20
0.025117158
 30
0.0
  0
POINT
  5
C8
330
6A
100
AcDbEntity
  8
0
100
AcDbPoint
 10
-0.020114214
 20
0.031985787
 30
0.0
  0
POINT
  5
C9
330
6A
100
AcDbEntity
  8
0
100
AcDbPoint
 10
0.020114214
 20
0.031985787
 30
0.0
  0
POINT
  5
CA
330
6A
100
AcDbEntity
  8
0
100
AcDbPoint
 10
0.005114805
 20
0.019564259
 30
0.0
  0
POINT
  5
CB
330
6A
100
AcDbEntity
  8
0
100
AcDbPoint
 10
0.005114805
 20
0.025394322
 30
0.0
  0
POINT
  5
CC
330
6A
100
AcDbEntity
  8
0
100
AcDbPoint
 10
0.002627419
 20
0.025105124
 30
0.0
  0
POINT
  5
CD
330
6A
100
AcDbEntity
  8
0
100
AcDbPoint
 10
0.002616295
 20
0.019883705
 30
0.0
  0
POINT
  5
CE
330
6A
100
AcDbEntity
  8
0
100
AcDbPoint
 10
-0.002605124
 20
0.019872581
 30
0.0
  0
POINT
  5
CF
330
6A
100
AcDbEntity
  8
0
100
AcDbPoint
 10
-0.002616295
 20
0.025116295
 30
0.0
  0
POINT
  5
D0
330
6A
100
AcDbEntity
  8
0
100
AcDbPoint
 10
-0.005114805
 20
0.025435742
 30
0.0
  0
POINT
  5
D1
330
6A
100
AcDbEntity
  8
0
100
AcDbPoint
 10
-0.005114805
 20
0.019564259
 30
0.0
  0
POINT
  5
D2
330
6A
100
AcDbEntity
  8
0
100
AcDbPoint
 10
-0.004194319
 20
0.015885195
 30
0.0
  0
POINT
  5
D3
330
6A
100
AcDbEntity
  8
0
100
AcDbPoint
 10
0.004235742
 20
0.015885196
 30
0.0
  0
POINT
  5
D4
330
6A
100
AcDbEntity
  8
0
100
AcDbPoint
 10
0.004714213
 20
0.002885786
 30
0.0
  0
POINT
  5
D5
330
6A
100
AcDbEntity
  8
0
100
AcDbPoint
 10
-0.004714213
 20
0.002885786
 30
0.0
  0
POINT
  5
D6
330
6A
100
AcDbEntity
  8
0
100
AcDbPoint
 10
-0.018
 20
0.1166
 30
0.0
  0
POINT
  5
D7
330
6A
100
AcDbEntity
  8
0
100
AcDbPoint
 10
-0.018
 20
0.1084
 30
0.0
  0
POINT
  5
D8
330
6A
100
AcDbEntity
  8
0
100
AcDbPoint
 10
-0.0055
 20
0.1188
 30
0.0
  0
POINT
  5
D9
330
6A
100
AcDbEntity
  8
0
100
AcDbPoint
 10
-0.009300001
 20
0.1193
 30
0.0
  0
POINT
  5
DA
330
6A
100
AcDbEntity
  8
0
100
AcDbPoint
 10
-0.0073
 20
0.1077
 30
0.0
  0
POINT
  5
DB
330
6A
100
AcDbEntity
  8
0
100
AcDbPoint
 10
-0.0126
 20
0.1221
 30
0.0
  0
POINT
  5
DC
330
6A
100
AcDbEntity
  8
0
100
AcDbPoint
 10
-0.011899998
 20
0.1228
 30
0.0
  0
POINT
  5
DD
330
6A
100
AcDbEntity
  8
0
100
AcDbPoint
 10
0.0086
 20
0.1305
 30
0.0
  0
POINT
  5
DE
330
6A
100
AcDbEntity
  8
0
100
AcDbPoint
 10
0.0126
 20
0.131200002
 30
0.0
  0
POINT
  5
DF
330
6A
100
AcDbEntity
  8
0
100
AcDbPoint
 10
0.013600006
 20
0.132699994
 30
0.0
  0
POINT
  5
E0
330
6A
100
AcDbEntity
  8
0
100
AcDbPoint
 10
0.0205
 20
0.123399999
 30
0.0
  0
POINT
  5
E1
330
6A
100
AcDbEntity
  8
0
100
AcDbPoint
 10
0.008690015
 20
0.1218
 30
0.0
  0
POINT
  5
E2
330
6A
100
AcDbEntity
  8
0
100
AcDbPoint
 10
0.018500001
 20
0.121399999
 30
0.0
  0
POINT
  5
E3
330
6A
100
AcDbEntity
  8
0
100
AcDbPoint
 10
0.0111
 20
0.1228
 30
0.0
  0
POINT
  5
E4
330
6A
100
AcDbEntity
  8
0
100
AcDbPoint
 10
0.0126
 20
0.131699994
 30
0.0
  0
POINT
  5
E5
330
6A
100
AcDbEntity
  8
0
100
AcDbPoint
 10
0.011899998
 20
0.130500003
 30
0.0
  0
POINT
  5
E6
330
6A
100
AcDbEntity
  8
0
100
AcDbPoint
 10
0.0133
 20
0.121399997
 30
0.0
  0
POINT
  5
E7
330
6A
100
AcDbEntity
  8
0
100
AcDbPoint
 10
0.0126
 20
0.1221
 30
0.0
  0
POINT
  5
E8
330
6A
100
AcDbEntity
  8
0
100
AcDbPoint
 10
0.011899998
 20
0.1228
 30
0.0
  0
POINT
  5
E9
330
6A
100
AcDbEntity
  8
0
100
AcDbPoint
 10
0.0205
 20
0.129699998
 30
0.0
  0
POINT
  5
EA
330
6A
100
AcDbEntity
  8
0
100
AcDbPoint
 10
0.017499998
 20
0.132699998
 30
0.0
  0
POINT
  5
EB
330
6A
100
AcDbEntity
  8
0
100
AcDbPoint
 10
-0.0225
 20
0.1166
 30
0.0
  0
POINT
  5
EC
330
6A
100
AcDbEntity
  8
0
100
AcDbPoint
 10
-0.0225
 20
0.1084
 30
0.0
  0
POINT
  5
ED
330
6A
100
AcDbEntity
  8
0
100
AcDbPoint
 10
-0.0126
 20
0.131200002
 30
0.0
  0
POINT
  5
EE
330
6A
100
AcDbEntity
  8
0
100
AcDbPoint
 10
-0.013600006
 20
0.132699994
 30
0.0
  0
POINT
  5
EF
330
6A
100
AcDbEntity
  8
0
100
AcDbPoint
 10
-0.017499998
 20
0.132699998
 30
0.0
  0
POINT
  5
F0
330
6A
100
AcDbEntity
  8
0
100
AcDbPoint
 10
-0.0205
 20
0.123399999
 30
0.0
  0
POINT
  5
F1
330
6A
100
AcDbEntity
  8
0
100
AcDbPoint
 10
0.018000001
 20
0.1193
 30
0.0
  0
POINT
  5
F2
330
6A
100
AcDbEntity
  8
0
100
AcDbPoint
 10
0.0073
 20
0.1173
 30
0.0
  0
POINT
  5
F3
330
6A
100
AcDbEntity
  8
0
100
AcDbPoint
 10
0.018
 20
0.1057
 30
0.0
  0
POINT
  5
F4
330
6A
100
AcDbEntity
  8
0
100
AcDbPoint
 10
0.0093
 20
0.1057
 30
0.0
  0
POINT
  5
F5
330
6A
100
AcDbEntity
  8
0
100
AcDbPoint
 10
0.018
 20
0.1166
 30
0.0
  0
POINT
  5
F6
330
6A
100
AcDbEntity
  8
0
100
AcDbPoint
 10
0.018
 20
0.1084
 30
0.0
  0
POINT
  5
F7
330
6A
100
AcDbEntity
  8
0
100
AcDbPoint
 10
0.009300001
 20
0.1193
 30
0.0
  0
POINT
  5
F8
330
6A
100
AcDbEntity
  8
0
100
AcDbPoint
 10
0.0073
 20
0.1077
 30
0.0
  0
POINT
  5
F9
330
6A
100
AcDbEntity
  8
0
100
AcDbPoint
 10
0.0225
 20
0.1166
 30
0.0
  0
POINT
  5
FA
330
6A
100
AcDbEntity
  8
0
100
AcDbPoint
 10
0.0225
 20
0.1084
 30
0.0
  0
POINT
  5
FB
330
6A
100
AcDbEntity
  8
0
100
AcDbPoint
 10
0.0055
 20
0.1188
 30
0.0
  0
POINT
  5
FC
330
6A
100
AcDbEntity
  8
0
100
AcDbPoint
 10
0.00487071
 20
0.105712133
 30
0.0
  0
POINT
  5
FD
330
6A
100
AcDbEntity
  8
0
100
AcDbPoint
 10
-0.004658577
 20
0.1052
 30
0.0
  0
POINT
  5
FE
330
6A
100
AcDbEntity
  8
0
100
AcDbPoint
 10
0.004658578
 20
0.105200001
 30
0.0
  0
POINT
  5
FF
330
6A
100
AcDbEntity
  8
0
100
AcDbPoint
 10
-0.004787868
 20
0.109629293
 30
0.0
  0
POINT
  5
100
330
6A
100
AcDbEntity
  8
0
100
AcDbPoint
 10
0.004787868
 20
0.115370708
 30
0.0
  0
POINT
  5
101
330
6A
100
AcDbEntity
  8
0
100
AcDbPoint
 10
0.003392942
 20
0.113975786
 30
0.0
  0
POINT
  5
102
330
6A
100
AcDbEntity
  8
0
100
AcDbPoint
 10
-0.003392943
 20
0.111024215
 30
0.0
  0
POINT
  5
103
330
6A
100
AcDbEntity
  8
0
100
AcDbPoint
 10
-0.001475785
 20
0.109107058
 30
0.0
  0
POINT
  5
104
330
6A
100
AcDbEntity
  8
0
100
AcDbPoint
 10
0.004787867
 20
0.109670712
 30
0.0
  0
POINT
  5
105
330
6A
100
AcDbEntity
  8
0
100
AcDbPoint
 10
-0.004787868
 20
0.11537071
 30
0.0
  0
POINT
  5
106
330
6A
100
AcDbEntity
  8
0
100
AcDbPoint
 10
-0.003392943
 20
0.113975786
 30
0.0
  0
POINT
  5
107
330
6A
100
AcDbEntity
  8
0
100
AcDbPoint
 10
0.003405396
 20
0.111053183
 30
0.0
  0
POINT
  5
108
330
6A
100
AcDbEntity
  8
0
100
AcDbPoint
 10
0.001475785
 20
0.109107058
 30
0.0
  0
POINT
  5
109
330
6A
100
AcDbEntity
  8
0
100
AcDbPoint
 10
-0.004870709
 20
0.105712132
 30
0.0
  0
POINT
  5
10A
330
6A
100
AcDbEntity
  8
0
100
AcDbPoint
 10
-0.0207
 20
0.1017
 30
0.0
  0
POINT
  5
10B
330
6A
100
AcDbEntity
  8
0
100
AcDbPoint
 10
-0.008690015
 20
0.1218
 30
0.0
  0
POINT
  5
10C
330
6A
100
AcDbEntity
  8
0
100
AcDbPoint
 10
-0.018500001
 20
0.121399999
 30
0.0
  0
POINT
  5
10D
330
6A
100
AcDbEntity
  8
0
100
AcDbPoint
 10
0.0207
 20
0.1017
 30
0.0
  0
POINT
  5
10E
330
6A
100
AcDbEntity
  8
0
100
AcDbPoint
 10
-0.0053
 20
0.115158578
 30
0.0
  0
POINT
  5
10F
330
6A
100
AcDbEntity
  8
0
100
AcDbPoint
 10
-0.0053
 20
0.109841425
 30
0.0
  0
POINT
  5
110
330
6A
100
AcDbEntity
  8
0
100
AcDbPoint
 10
0.0053
 20
0.115158576
 30
0.0
  0
POINT
  5
111
330
6A
100
AcDbEntity
  8
0
100
AcDbPoint
 10
0.005299999
 20
0.109882844
 30
0.0
  0
POINT
  5
112
330
6A
100
AcDbEntity
  8
0
100
AcDbPoint
 10
0.019914214
 20
0.121985786
 30
0.0
  0
POINT
  5
113
330
6A
100
AcDbEntity
  8
0
100
AcDbPoint
 10
0.01962132
 20
0.131821319
 30
0.0
  0
POINT
  5
114
330
6A
100
AcDbEntity
  8
0
100
AcDbPoint
 10
0.012892895
 20
0.132407103
 30
0.0
  0
POINT
  5
115
330
6A
100
AcDbEntity
  8
0
100
AcDbPoint
 10
0.012394974
 20
0.130705027
 30
0.0
  0
POINT
  5
116
330
6A
100
AcDbEntity
  8
0
100
AcDbPoint
 10
0.012805025
 20
0.121605022
 30
0.0
  0
POINT
  5
117
330
6A
100
AcDbEntity
  8
0
100
AcDbPoint
 10
0.012394974
 20
0.122594976
 30
0.0
  0
POINT
  5
118
330
6A
100
AcDbEntity
  8
0
100
AcDbPoint
 10
0.009798537
 20
0.122532491
 30
0.0
  0
POINT
  5
119
330
6A
100
AcDbEntity
  8
0
100
AcDbPoint
 10
-0.009798537
 20
0.122532491
 30
0.0
  0
POINT
  5
11A
330
6A
100
AcDbEntity
  8
0
100
AcDbPoint
 10
-0.012394974
 20
0.122594976
 30
0.0
  0
POINT
  5
11B
330
6A
100
AcDbEntity
  8
0
100
AcDbPoint
 10
-0.012805025
 20
0.121605022
 30
0.0
  0
POINT
  5
11C
330
6A
100
AcDbEntity
  8
0
100
AcDbPoint
 10
-0.012394974
 20
0.130705027
 30
0.0
  0
POINT
  5
11D
330
6A
100
AcDbEntity
  8
0
100
AcDbPoint
 10
-0.012892895
 20
0.132407103
 30
0.0
  0
POINT
  5
11E
330
6A
100
AcDbEntity
  8
0
100
AcDbPoint
 10
-0.019914214
 20
0.121985786
 30
0.0
  0
POINT
  5
11F
330
6A
100
AcDbEntity
  8
0
100
AcDbPoint
 10
-0.01962132
 20
0.131821319
 30
0.0
  0
POINT
  5
120
330
6A
100
AcDbEntity
  8
0
100
AcDbPoint
 10
-0.005114805
 20
0.109564261
 30
0.0
  0
POINT
  5
121
330
6A
100
AcDbEntity
  8
0
100
AcDbPoint
 10
-0.005114805
 20
0.115435742
 30
0.0
  0
POINT
  5
122
330
6A
100
AcDbEntity
  8
0
100
AcDbPoint
 10
-0.0205
 20
0.129699998
 30
0.0
  0
POINT
  5
123
330
6A
100
AcDbEntity
  8
0
100
AcDbPoint
 10
-0.002616295
 20
0.109883705
 30
0.0
  0
POINT
  5
124
330
6A
100
AcDbEntity
  8
0
100
AcDbPoint
 10
0.002627419
 20
0.109894877
 30
0.0
  0
POINT
  5
125
330
6A
100
AcDbEntity
  8
0
100
AcDbPoint
 10
0.005114805
 20
0.11543574
 30
0.0
  0
POINT
  5
126
330
6A
100
AcDbEntity
  8
0
100
AcDbPoint
 10
0.005114804
 20
0.10960568
 30
0.0
  0
POINT
  5
127
330
6A
100
AcDbEntity
  8
0
100
AcDbPoint
 10
0.004935742
 20
0.105385196
 30
0.0
  0
POINT
  5
128
330
6A
100
AcDbEntity
  8
0
100
AcDbPoint
 10
-0.004935741
 20
0.105385195
 30
0.0
  0
POINT
  5
129
330
6A
100
AcDbEntity
  8
0
100
AcDbPoint
 10
0.020114214
 20
0.103114214
 30
0.0
  0
POINT
  5
12A
330
6A
100
AcDbEntity
  8
0
100
AcDbPoint
 10
-0.020114214
 20
0.103114214
 30
0.0
  0
POINT
  5
12B
330
6A
100
AcDbEntity
  8
0
100
AcDbPoint
 10
-0.0086
 20
0.135
 30
0.0
  0
POINT
  5
12C
330
6A
100
AcDbEntity
  8
0
100
AcDbPoint
 10
-0.0086
 20
0.1305
 30
0.0
  0
POINT
  5
12D
330
6A
100
AcDbEntity
  8
0
100
AcDbPoint
 10
-0.022474715
 20
0.135
 30
0.0
  0
POINT
  5
12E
330
6A
100
AcDbEntity
  8
0
100
AcDbPoint
 10
0.0187
 20
0.1037
 30
0.0
  0
POINT
  5
12F
330
6A
100
AcDbEntity
  8
0
100
AcDbPoint
 10
0.0086
 20
0.135
 30
0.0
  0
POINT
  5
130
330
6A
100
AcDbEntity
  8
0
100
AcDbPoint
 10
-0.0111
 20
0.1228
 30
0.0
  0
POINT
  5
131
330
6A
100
AcDbEntity
  8
0
100
AcDbPoint
 10
-0.0126
 20
0.131699994
 30
0.0
  0
POINT
  5
132
330
6A
100
AcDbEntity
  8
0
100
AcDbPoint
 10
-0.011899998
 20
0.130500003
 30
0.0
  0
POINT
  5
133
330
6A
100
AcDbEntity
  8
0
100
AcDbPoint
 10
-0.0133
 20
0.121399997
 30
0.0
  0
POINT
  5
134
330
6A
100
AcDbEntity
  8
0
100
AcDbPoint
 10
0.022474715
 20
0.135
 30
0.0
  0
POINT
  5
135
330
6A
100
AcDbEntity
  8
0
100
AcDbPoint
 10
-0.0187
 20
0.1037
 30
0.0
  0
POINT
  5
136
330
6A
100
AcDbEntity
  8
0
100
AcDbPoint
 10
-0.018000001
 20
0.1193
 30
0.0
  0
POINT
  5
137
330
6A
100
AcDbEntity
  8
0
100
AcDbPoint
 10
-0.0073
 20
0.1173
 30
0.0
  0
POINT
  5
138
330
6A
100
AcDbEntity
  8
0
100
AcDbPoint
 10
-0.018
 20
0.1057
 30
0.0
  0
POINT
  5
139
330
6A
100
AcDbEntity
  8
0
100
AcDbPoint
 10
-0.0093
 20
0.1057
 30
0.0
  0
POINT
  5
13A
330
6A
100
AcDbEntity
  8
0
100
AcDbPoint
 10
0.0
 20
0.1162
 30
0.0
  0
POINT
  5
13B
330
6A
100
AcDbEntity
  8
0
100
AcDbPoint
 10
0.004935742
 20
0.029614805
 30
0.0
  0
POINT
  5
13C
330
6A
100
AcDbEntity
  8
0
100
AcDbPoint
 10
-0.004935741
 20
0.029614806
 30
0.0
  0
LINE
  5
13D
330
6A
100
AcDbEntity
  8
0
100
AcDbLine
 10
-0.0225
 20
0.0
 30
0.0
 11
-0.0225
 21
0.0041
 31
0.0
  0
LINE
  5
13E
330
6A
100
AcDbEntity
  8
0
100
AcDbLine
 10
-0.0225
 20
0.0041
 30
0.0
 11
-0.018
 21
0.0041
 31
0.0
  0
LINE
  5
13F
330
6A
100
AcDbEntity
  8
0
100
AcDbLine
 10
-0.018
 20
0.0041
 30
0.0
 11
-0.018
 21
0.0023
 31
0.0
  0
LINE
  5
140
330
6A
100
AcDbEntity
  8
0
100
AcDbLine
 10
-0.0225
 20
0.0123
 30
0.0
 11
-0.018
 21
0.0123
 31
0.0
  0
LINE
  5
141
330
6A
100
AcDbEntity
  8
0
100
AcDbLine
 10
-0.018
 20
0.0123
 30
0.0
 11
-0.018
 21
0.0141
 31
0.0
  0
LINE
  5
142
330
6A
100
AcDbEntity
  8
0
100
AcDbLine
 10
-0.0073
 20
0.0043
 30
0.0
 11
-0.0073
 21
0.0121
 31
0.0
  0
LINE
  5
143
330
6A
100
AcDbEntity
  8
0
100
AcDbLine
 10
-0.0225
 20
0.0
 30
0.0
 11
0.0225
 21
0.0
 31
0.0
  0
LINE
  5
144
330
6A
100
AcDbEntity
  8
0
100
AcDbLine
 10
0.0073
 20
0.0043
 30
0.0
 11
0.0073
 21
0.0121
 31
0.0
  0
LINE
  5
145
330
6A
100
AcDbEntity
  8
0
100
AcDbLine
 10
0.018
 20
0.0141
 30
0.0
 11
0.0093
 21
0.0141
 31
0.0
  0
LINE
  5
146
330
6A
100
AcDbEntity
  8
0
100
AcDbLine
 10
0.018
 20
0.0023
 30
0.0
 11
0.0093
 21
0.0023
 31
0.0
  0
LINE
  5
147
330
6A
100
AcDbEntity
  8
0
100
AcDbLine
 10
0.0093
 20
0.0023
 30
0.0
 11
0.0073
 21
0.0043
 31
0.0
  0
LINE
  5
148
330
6A
100
AcDbEntity
  8
0
100
AcDbLine
 10
0.0073
 20
0.0121
 30
0.0
 11
0.0093
 21
0.0141
 31
0.0
  0
LINE
  5
149
330
6A
100
AcDbEntity
  8
0
100
AcDbLine
 10
0.0225
 20
0.0123
 30
0.0
 11
0.0225
 21
0.0184
 31
0.0
  0
LINE
  5
14A
330
6A
100
AcDbEntity
  8
0
100
AcDbLine
 10
-0.018
 20
0.0141
 30
0.0
 11
-0.0093
 21
0.0141
 31
0.0
  0
LINE
  5
14B
330
6A
100
AcDbEntity
  8
0
100
AcDbLine
 10
-0.018
 20
0.0023
 30
0.0
 11
-0.0093
 21
0.0023
 31
0.0
  0
LINE
  5
14C
330
6A
100
AcDbEntity
  8
0
100
AcDbLine
 10
-0.0093
 20
0.0023
 30
0.0
 11
-0.0073
 21
0.0043
 31
0.0
  0
LINE
  5
14D
330
6A
100
AcDbEntity
  8
0
100
AcDbLine
 10
-0.0073
 20
0.0121
 30
0.0
 11
-0.0093
 21
0.0141
 31
0.0
  0
LINE
  5
14E
330
6A
100
AcDbEntity
  8
0
100
AcDbLine
 10
-0.0225
 20
0.0266
 30
0.0
 11
-0.018
 21
0.0266
 31
0.0
  0
LINE
  5
14F
330
6A
100
AcDbEntity
  8
0
100
AcDbLine
 10
-0.018
 20
0.0266
 30
0.0
 11
-0.018000001
 21
0.0293
 31
0.0
  0
LINE
  5
150
330
6A
100
AcDbEntity
  8
0
100
AcDbLine
 10
-0.0225
 20
0.0184
 30
0.0
 11
-0.018
 21
0.0184
 31
0.0
  0
LINE
  5
151
330
6A
100
AcDbEntity
  8
0
100
AcDbLine
 10
-0.018
 20
0.0184
 30
0.0
 11
-0.018
 21
0.0157
 31
0.0
  0
LINE
  5
152
330
6A
100
AcDbEntity
  8
0
100
AcDbLine
 10
-0.0073
 20
0.0273
 30
0.0
 11
-0.0073
 21
0.0177
 31
0.0
  0
LINE
  5
153
330
6A
100
AcDbEntity
  8
0
100
AcDbLine
 10
-0.018
 20
0.0157
 30
0.0
 11
-0.0093
 21
0.0157
 31
0.0
  0
LINE
  5
154
330
6A
100
AcDbEntity
  8
0
100
AcDbLine
 10
-0.018000001
 20
0.0293
 30
0.0
 11
-0.009300001
 21
0.0293
 31
0.0
  0
LINE
  5
155
330
6A
100
AcDbEntity
  8
0
100
AcDbLine
 10
-0.009300001
 20
0.0293
 30
0.0
 11
-0.0073
 21
0.0273
 31
0.0
  0
LINE
  5
156
330
6A
100
AcDbEntity
  8
0
100
AcDbLine
 10
-0.0073
 20
0.0177
 30
0.0
 11
-0.0093
 21
0.0157
 31
0.0
  0
LINE
  5
157
330
6A
100
AcDbEntity
  8
0
100
AcDbLine
 10
-0.0225
 20
0.0123
 30
0.0
 11
-0.0225
 21
0.0184
 31
0.0
  0
LINE
  5
158
330
6A
100
AcDbEntity
  8
0
100
AcDbLine
 10
-0.003392943
 20
0.023975786
 30
0.0
 11
-0.004787868
 21
0.02537071
 31
0.0
  0
LINE
  5
159
330
6A
100
AcDbEntity
  8
0
100
AcDbLine
 10
-0.0053
 20
0.025158578
 30
0.0
 11
-0.0053
 21
0.019841423
 31
0.0
  0
LINE
  5
15A
330
6A
100
AcDbEntity
  8
0
100
AcDbLine
 10
-0.003392943
 20
0.021024215
 30
0.0
 11
-0.004787868
 21
0.019629291
 31
0.0
  0
LINE
  5
15B
330
6A
100
AcDbEntity
  8
0
100
AcDbLine
 10
-0.001446817
 20
0.019094605
 30
0.0
 11
-0.004129288
 21
0.016212132
 31
0.0
  0
LINE
  5
15C
330
6A
100
AcDbEntity
  8
0
100
AcDbLine
 10
0.001475785
 20
0.019107058
 30
0.0
 11
0.00417071
 21
0.016212133
 31
0.0
  0
LINE
  5
15D
330
6A
100
AcDbEntity
  8
0
100
AcDbLine
 10
0.003392942
 20
0.021024215
 30
0.0
 11
0.004787868
 21
0.019629291
 31
0.0
  0
LINE
  5
15E
330
6A
100
AcDbEntity
  8
0
100
AcDbLine
 10
0.0053
 20
0.019841423
 30
0.0
 11
0.0053
 21
0.025117158
 31
0.0
  0
LINE
  5
15F
330
6A
100
AcDbEntity
  8
0
100
AcDbLine
 10
0.003405396
 20
0.023946817
 30
0.0
 11
0.004787868
 21
0.02532929
 31
0.0
  0
LINE
  5
160
330
6A
100
AcDbEntity
  8
0
100
AcDbLine
 10
-0.001475785
 20
0.025892943
 30
0.0
 11
-0.004870709
 21
0.029287868
 31
0.0
  0
LINE
  5
161
330
6A
100
AcDbEntity
  8
0
100
AcDbLine
 10
0.001475785
 20
0.025892943
 30
0.0
 11
0.00487071
 21
0.029287868
 31
0.0
  0
LINE
  5
162
330
6A
100
AcDbEntity
  8
0
100
AcDbLine
 10
-0.004658577
 20
0.0298
 30
0.0
 11
0.004658578
 21
0.0298
 31
0.0
  0
LINE
  5
163
330
6A
100
AcDbEntity
  8
0
100
AcDbLine
 10
-0.003917155
 20
0.0157
 30
0.0
 11
0.003958578
 21
0.015700001
 31
0.0
  0
LINE
  5
164
330
6A
100
AcDbEntity
  8
0
100
AcDbLine
 10
0.0033
 20
0.0023
 30
0.0
 11
-0.0033
 21
0.0023
 31
0.0
  0
LINE
  5
165
330
6A
100
AcDbEntity
  8
0
100
AcDbLine
 10
-0.0053
 20
0.0043
 30
0.0
 11
-0.0053
 21
0.0121
 31
0.0
  0
LINE
  5
166
330
6A
100
AcDbEntity
  8
0
100
AcDbLine
 10
-0.0033
 20
0.0141
 30
0.0
 11
0.0033
 21
0.0141
 31
0.0
  0
LINE
  5
167
330
6A
100
AcDbEntity
  8
0
100
AcDbLine
 10
0.0053
 20
0.0121
 30
0.0
 11
0.0053
 21
0.0043
 31
0.0
  0
LINE
  5
168
330
6A
100
AcDbEntity
  8
0
100
AcDbLine
 10
0.0225
 20
0.0266
 30
0.0
 11
0.018
 21
0.0266
 31
0.0
  0
LINE
  5
169
330
6A
100
AcDbEntity
  8
0
100
AcDbLine
 10
0.018
 20
0.0266
 30
0.0
 11
0.018000001
 21
0.0293
 31
0.0
  0
LINE
  5
16A
330
6A
100
AcDbEntity
  8
0
100
AcDbLine
 10
0.0225
 20
0.0184
 30
0.0
 11
0.018
 21
0.0184
 31
0.0
  0
LINE
  5
16B
330
6A
100
AcDbEntity
  8
0
100
AcDbLine
 10
0.018
 20
0.0184
 30
0.0
 11
0.018
 21
0.0157
 31
0.0
  0
LINE
  5
16C
330
6A
100
AcDbEntity
  8
0
100
AcDbLine
 10
0.0073
 20
0.0273
 30
0.0
 11
0.0073
 21
0.0177
 31
0.0
  0
LINE
  5
16D
330
6A
100
AcDbEntity
  8
0
100
AcDbLine
 10
0.018
 20
0.0157
 30
0.0
 11
0.0093
 21
0.0157
 31
0.0
  0
LINE
  5
16E
330
6A
100
AcDbEntity
  8
0
100
AcDbLine
 10
0.018000001
 20
0.0293
 30
0.0
 11
0.009300001
 21
0.0293
 31
0.0
  0
LINE
  5
16F
330
6A
100
AcDbEntity
  8
0
100
AcDbLine
 10
0.009300001
 20
0.0293
 30
0.0
 11
0.0073
 21
0.0273
 31
0.0
  0
LINE
  5
170
330
6A
100
AcDbEntity
  8
0
100
AcDbLine
 10
0.0073
 20
0.0177
 30
0.0
 11
0.0093
 21
0.0157
 31
0.0
  0
LINE
  5
171
330
6A
100
AcDbEntity
  8
0
100
AcDbLine
 10
-0.0187
 20
0.0314
 30
0.0
 11
0.0187
 21
0.0314
 31
0.0
  0
LINE
  5
172
330
6A
100
AcDbEntity
  8
0
100
AcDbLine
 10
0.0225
 20
0.0
 30
0.0
 11
0.0225
 21
0.0041
 31
0.0
  0
LINE
  5
173
330
6A
100
AcDbEntity
  8
0
100
AcDbLine
 10
0.0225
 20
0.0041
 30
0.0
 11
0.018
 21
0.0041
 31
0.0
  0
LINE
  5
174
330
6A
100
AcDbEntity
  8
0
100
AcDbLine
 10
0.018
 20
0.0041
 30
0.0
 11
0.018
 21
0.0023
 31
0.0
  0
LINE
  5
175
330
6A
100
AcDbEntity
  8
0
100
AcDbLine
 10
0.0225
 20
0.0123
 30
0.0
 11
0.018
 21
0.0123
 31
0.0
  0
LINE
  5
176
330
6A
100
AcDbEntity
  8
0
100
AcDbLine
 10
0.018
 20
0.0123
 30
0.0
 11
0.018
 21
0.0141
 31
0.0
  0
LINE
  5
177
330
6A
100
AcDbEntity
  8
0
100
AcDbLine
 10
-0.0207
 20
0.0334
 30
0.0
 11
-0.0207
 21
0.1017
 31
0.0
  0
LINE
  5
178
330
6A
100
AcDbEntity
  8
0
100
AcDbLine
 10
-0.0086
 20
0.135
 30
0.0
 11
-0.0086
 21
0.1305
 31
0.0
  0
LINE
  5
179
330
6A
100
AcDbEntity
  8
0
100
AcDbLine
 10
-0.022474715
 20
0.135
 30
0.0
 11
-0.0086
 21
0.135
 31
0.0
  0
LINE
  5
17A
330
6A
100
AcDbEntity
  8
0
100
AcDbLine
 10
0.022474715
 20
0.135
 30
0.0
 11
0.0086
 21
0.135
 31
0.0
  0
LINE
  5
17B
330
6A
100
AcDbEntity
  8
0
100
AcDbLine
 10
-0.0225
 20
0.1166
 30
0.0
 11
-0.018
 21
0.1166
 31
0.0
  0
LINE
  5
17C
330
6A
100
AcDbEntity
  8
0
100
AcDbLine
 10
-0.018
 20
0.1166
 30
0.0
 11
-0.018000001
 21
0.1193
 31
0.0
  0
LINE
  5
17D
330
6A
100
AcDbEntity
  8
0
100
AcDbLine
 10
-0.0225
 20
0.1084
 30
0.0
 11
-0.018
 21
0.1084
 31
0.0
  0
LINE
  5
17E
330
6A
100
AcDbEntity
  8
0
100
AcDbLine
 10
-0.018
 20
0.1084
 30
0.0
 11
-0.018
 21
0.1057
 31
0.0
  0
LINE
  5
17F
330
6A
100
AcDbEntity
  8
0
100
AcDbLine
 10
-0.0073
 20
0.1173
 30
0.0
 11
-0.0073
 21
0.1077
 31
0.0
  0
LINE
  5
180
330
6A
100
AcDbEntity
  8
0
100
AcDbLine
 10
-0.018
 20
0.1057
 30
0.0
 11
-0.0093
 21
0.1057
 31
0.0
  0
LINE
  5
181
330
6A
100
AcDbEntity
  8
0
100
AcDbLine
 10
-0.018000001
 20
0.1193
 30
0.0
 11
-0.009300001
 21
0.1193
 31
0.0
  0
LINE
  5
182
330
6A
100
AcDbEntity
  8
0
100
AcDbLine
 10
-0.009300001
 20
0.1193
 30
0.0
 11
-0.0073
 21
0.1173
 31
0.0
  0
LINE
  5
183
330
6A
100
AcDbEntity
  8
0
100
AcDbLine
 10
-0.0073
 20
0.1077
 30
0.0
 11
-0.0093
 21
0.1057
 31
0.0
  0
LINE
  5
184
330
6A
100
AcDbEntity
  8
0
100
AcDbLine
 10
-0.0225
 20
0.1084
 30
0.0
 11
-0.0225
 21
0.0266
 31
0.0
  0
LINE
  5
185
330
6A
100
AcDbEntity
  8
0
100
AcDbLine
 10
-0.022474715
 20
0.135
 30
0.0
 11
-0.0225
 21
0.1166
 31
0.0
  0
LINE
  5
186
330
6A
100
AcDbEntity
  8
0
100
AcDbLine
 10
-0.0086
 20
0.1305
 30
0.0
 11
-0.011899998
 21
0.130500003
 31
0.0
  0
LINE
  5
187
330
6A
100
AcDbEntity
  8
0
100
AcDbLine
 10
-0.0126
 20
0.131200002
 30
0.0
 11
-0.0126
 21
0.131699994
 31
0.0
  0
LINE
  5
188
330
6A
100
AcDbEntity
  8
0
100
AcDbLine
 10
-0.013600006
 20
0.132699994
 30
0.0
 11
-0.017499998
 21
0.132699998
 31
0.0
  0
LINE
  5
189
330
6A
100
AcDbEntity
  8
0
100
AcDbLine
 10
-0.0205
 20
0.123399999
 30
0.0
 11
-0.0205
 21
0.129699998
 31
0.0
  0
LINE
  5
18A
330
6A
100
AcDbEntity
  8
0
100
AcDbLine
 10
0.0225
 20
0.1166
 30
0.0
 11
0.018
 21
0.1166
 31
0.0
  0
LINE
  5
18B
330
6A
100
AcDbEntity
  8
0
100
AcDbLine
 10
0.018
 20
0.1166
 30
0.0
 11
0.018000001
 21
0.1193
 31
0.0
  0
LINE
  5
18C
330
6A
100
AcDbEntity
  8
0
100
AcDbLine
 10
0.0225
 20
0.1084
 30
0.0
 11
0.018
 21
0.1084
 31
0.0
  0
LINE
  5
18D
330
6A
100
AcDbEntity
  8
0
100
AcDbLine
 10
0.018
 20
0.1084
 30
0.0
 11
0.018
 21
0.1057
 31
0.0
  0
LINE
  5
18E
330
6A
100
AcDbEntity
  8
0
100
AcDbLine
 10
0.0073
 20
0.1173
 30
0.0
 11
0.0073
 21
0.1077
 31
0.0
  0
LINE
  5
18F
330
6A
100
AcDbEntity
  8
0
100
AcDbLine
 10
0.018
 20
0.1057
 30
0.0
 11
0.0093
 21
0.1057
 31
0.0
  0
LINE
  5
190
330
6A
100
AcDbEntity
  8
0
100
AcDbLine
 10
0.018000001
 20
0.1193
 30
0.0
 11
0.009300001
 21
0.1193
 31
0.0
  0
LINE
  5
191
330
6A
100
AcDbEntity
  8
0
100
AcDbLine
 10
0.009300001
 20
0.1193
 30
0.0
 11
0.0073
 21
0.1173
 31
0.0
  0
LINE
  5
192
330
6A
100
AcDbEntity
  8
0
100
AcDbLine
 10
0.0073
 20
0.1077
 30
0.0
 11
0.0093
 21
0.1057
 31
0.0
  0
LINE
  5
193
330
6A
100
AcDbEntity
  8
0
100
AcDbLine
 10
0.022474715
 20
0.135
 30
0.0
 11
0.0225
 21
0.1166
 31
0.0
  0
LINE
  5
194
330
6A
100
AcDbEntity
  8
0
100
AcDbLine
 10
-0.0187
 20
0.1037
 30
0.0
 11
0.0187
 21
0.1037
 31
0.0
  0
LINE
  5
195
330
6A
100
AcDbEntity
  8
0
100
AcDbLine
 10
0.0055
 20
0.1188
 30
0.0
 11
-0.0055
 21
0.1188
 31
0.0
  0
LINE
  5
196
330
6A
100
AcDbEntity
  8
0
100
AcDbLine
 10
-0.018500001
 20
0.121399999
 30
0.0
 11
-0.0133
 21
0.121399997
 31
0.0
  0
LINE
  5
197
330
6A
100
AcDbEntity
  8
0
100
AcDbLine
 10
0.0207
 20
0.0334
 30
0.0
 11
0.0207
 21
0.1017
 31
0.0
  0
LINE
  5
198
330
6A
100
AcDbEntity
  8
0
100
AcDbLine
 10
0.0225
 20
0.0266
 30
0.0
 11
0.0225
 21
0.1084
 31
0.0
  0
LINE
  5
199
330
6A
100
AcDbEntity
  8
0
100
AcDbLine
 10
-0.008690015
 20
0.1218
 30
0.0
 11
-0.0055
 21
0.1188
 31
0.0
  0
LINE
  5
19A
330
6A
100
AcDbEntity
  8
0
100
AcDbLine
 10
0.008690015
 20
0.1218
 30
0.0
 11
0.0055
 21
0.1188
 31
0.0
  0
LINE
  5
19B
330
6A
100
AcDbEntity
  8
0
100
AcDbLine
 10
0.011899998
 20
0.1228
 30
0.0
 11
0.0111
 21
0.1228
 31
0.0
  0
LINE
  5
19C
330
6A
100
AcDbEntity
  8
0
100
AcDbLine
 10
-0.011899998
 20
0.1228
 30
0.0
 11
-0.0111
 21
0.1228
 31
0.0
  0
LINE
  5
19D
330
6A
100
AcDbEntity
  8
0
100
AcDbLine
 10
0.0086
 20
0.135
 30
0.0
 11
0.0086
 21
0.1305
 31
0.0
  0
LINE
  5
19E
330
6A
100
AcDbEntity
  8
0
100
AcDbLine
 10
0.0086
 20
0.1305
 30
0.0
 11
0.011899998
 21
0.130500003
 31
0.0
  0
LINE
  5
19F
330
6A
100
AcDbEntity
  8
0
100
AcDbLine
 10
-0.003392943
 20
0.111024215
 30
0.0
 11
-0.004787868
 21
0.109629293
 31
0.0
  0
LINE
  5
1A0
330
6A
100
AcDbEntity
  8
0
100
AcDbLine
 10
-0.0053
 20
0.109841425
 30
0.0
 11
-0.0053
 21
0.115158578
 31
0.0
  0
LINE
  5
1A1
330
6A
100
AcDbEntity
  8
0
100
AcDbLine
 10
-0.003392943
 20
0.113975786
 30
0.0
 11
-0.004787868
 21
0.11537071
 31
0.0
  0
LINE
  5
1A2
330
6A
100
AcDbEntity
  8
0
100
AcDbLine
 10
0.003392942
 20
0.113975786
 30
0.0
 11
0.004787868
 21
0.115370708
 31
0.0
  0
LINE
  5
1A3
330
6A
100
AcDbEntity
  8
0
100
AcDbLine
 10
0.0053
 20
0.115158576
 30
0.0
 11
0.005299999
 21
0.109882844
 31
0.0
  0
LINE
  5
1A4
330
6A
100
AcDbEntity
  8
0
100
AcDbLine
 10
0.003405396
 20
0.111053183
 30
0.0
 11
0.004787867
 21
0.109670712
 31
0.0
  0
LINE
  5
1A5
330
6A
100
AcDbEntity
  8
0
100
AcDbLine
 10
-0.001475785
 20
0.109107058
 30
0.0
 11
-0.004870709
 21
0.105712132
 31
0.0
  0
LINE
  5
1A6
330
6A
100
AcDbEntity
  8
0
100
AcDbLine
 10
0.001475785
 20
0.109107058
 30
0.0
 11
0.00487071
 21
0.105712133
 31
0.0
  0
LINE
  5
1A7
330
6A
100
AcDbEntity
  8
0
100
AcDbLine
 10
-0.004658577
 20
0.1052
 30
0.0
 11
0.004658578
 21
0.105200001
 31
0.0
  0
LINE
  5
1A8
330
6A
100
AcDbEntity
  8
0
100
AcDbLine
 10
0.0126
 20
0.131200002
 30
0.0
 11
0.0126
 21
0.131699994
 31
0.0
  0
LINE
  5
1A9
330
6A
100
AcDbEntity
  8
0
100
AcDbLine
 10
0.013600006
 20
0.132699994
 30
0.0
 11
0.017499998
 21
0.132699998
 31
0.0
  0
LINE
  5
1AA
330
6A
100
AcDbEntity
  8
0
100
AcDbLine
 10
0.0205
 20
0.123399999
 30
0.0
 11
0.0205
 21
0.129699998
 31
0.0
  0
LINE
  5
1AB
330
6A
100
AcDbEntity
  8
0
100
AcDbLine
 10
0.018500001
 20
0.121399999
 30
0.0
 11
0.0133
 21
0.121399997
 31
0.0
  0
ARC
  5
1AC
330
6A
100
AcDbEntity
  8
0
100
AcDbCircle
 10
0.0032999997870452
 20
0.0120999997870452
 30
0.0
 40
0.0020000002129548
100
AcDbArc
 50
0.0000061007046254
 51
89.99999389929534
  0
ARC
  5
1AD
330
6A
100
AcDbEntity
  8
0
100
AcDbCircle
 10
0.0032999997870452
 20
0.0120999997870452
 30
0.0
 40
0.0020000002129548
210
0.0
220
0.0
230
-1.0
100
AcDbArc
 50
0.0000061007046254
 51
89.99999389929534
  0
ARC
  5
1AE
330
6A
100
AcDbEntity
  8
0
100
AcDbCircle
 10
0.0032999997870452
 20
0.0043000002129548
 30
0.0
 40
0.0020000002129548
100
AcDbArc
 50
-89.99999389929524
 51
-0.0000061007047816
  0
ARC
  5
1AF
330
6A
100
AcDbEntity
  8
0
100
AcDbCircle
 10
-0.0032999997870452
 20
0.0043000002129548
 30
0.0
 40
0.0020000002129548
100
AcDbArc
 50
-179.9999938992952
 51
-90.00000610070477
  0
ARC
  5
1B0
330
6A
100
AcDbEntity
  8
0
100
AcDbCircle
 10
0.0000000031226877
 20
0.0224999968773123
 30
0.0
 40
0.0036999954560217
100
AcDbArc
 50
-66.49304056831574
 51
-23.50695943168414
  0
ARC
  5
1B1
330
6A
100
AcDbEntity
  8
0
100
AcDbCircle
 10
-0.0000000013659716
 20
0.0224999992157705
 30
0.0
 40
0.0037000017460711
100
AcDbArc
 50
23.01870685731343
 51
66.49300713581697
  0
ARC
  5
1B2
330
6A
100
AcDbEntity
  8
0
100
AcDbCircle
 10
0.005000000112628
 20
0.0198414227968039
 30
0.0
 40
0.0002999998873721
100
AcDbArc
 50
-135.0000426512481
 51
0.0000388076068494
  0
ARC
  5
1B3
330
6A
100
AcDbEntity
  8
0
100
AcDbCircle
 10
0.005000000112628
 20
0.0251171582031961
 30
0.0
 40
0.0002999998873721
100
AcDbArc
 50
-0.0000388076068498
 51
135.0000426512484
  0
ARC
  5
1B4
330
6A
100
AcDbEntity
  8
0
100
AcDbCircle
 10
0.0046585782031961
 20
0.029500000112628
 30
0.0
 40
0.0002999998873721
100
AcDbArc
 50
-45.00004265124874
 51
90.00003880760734
  0
ARC
  5
1B5
330
6A
100
AcDbEntity
  8
0
100
AcDbCircle
 10
0.0000000046548071
 20
0.022499997645192
 30
0.0
 40
0.003699995274339
210
0.0
220
0.0
230
-1.0
100
AcDbArc
 50
-66.98134207630504
 51
-23.506973622411
  0
ARC
  5
1B6
330
6A
100
AcDbEntity
  8
0
100
AcDbCircle
 10
-0.000000007845177
 20
0.0224999913850408
 30
0.0
 40
0.0037000115112429
210
0.0
220
0.0
230
-1.0
100
AcDbArc
 50
23.50706638960161
 51
66.49296349619527
  0
ARC
  5
1B7
330
6A
100
AcDbEntity
  8
0
100
AcDbCircle
 10
0.0039171548205117
 20
0.0160000004601
 30
0.0
 40
0.0003000004601
210
0.0
220
0.0
230
-1.0
100
AcDbArc
 50
-89.99996572030291
 51
44.99977857812671
  0
ARC
  5
1B8
330
6A
100
AcDbEntity
  8
0
100
AcDbCircle
 10
0.005000000112628
 20
0.0198414227968039
 30
0.0
 40
0.0002999998873721
210
0.0
220
0.0
230
-1.0
100
AcDbArc
 50
-135.0000426512481
 51
0.0000388076068494
  0
ARC
  5
1B9
330
6A
100
AcDbEntity
  8
0
100
AcDbCircle
 10
0.0039585782031961
 20
0.016000000887372
 30
0.0
 40
0.0002999998873721
100
AcDbArc
 50
-90.0000388076072
 51
45.00004265124863
  0
ARC
  5
1BA
330
6A
100
AcDbEntity
  8
0
100
AcDbCircle
 10
0.0186999997870452
 20
0.0334000002129548
 30
0.0
 40
0.0020000002129548
210
0.0
220
0.0
230
-1.0
100
AcDbArc
 50
-89.99999389929511
 51
-0.0000061007047689
  0
ARC
  5
1BB
330
6A
100
AcDbEntity
  8
0
100
AcDbCircle
 10
0.0186999997870452
 20
0.0334000002129548
 30
0.0
 40
0.0020000002129548
100
AcDbArc
 50
-89.99999389929511
 51
-0.0000061007047689
  0
ARC
  5
1BC
330
6A
100
AcDbEntity
  8
0
100
AcDbCircle
 10
0.0187000014941504
 20
0.1017000014941504
 30
0.0
 40
0.0019999985058502
100
AcDbArc
 50
-0.0000428042871397
 51
90.00004280428742
  0
ARC
  5
1BD
330
6A
100
AcDbEntity
  8
0
100
AcDbCircle
 10
0.0184999997870446
 20
0.1233999992129551
 30
0.0
 40
0.0020000002129554
100
AcDbArc
 50
-89.99996525139026
 51
-0.0000061007131274
  0
ARC
  5
1BE
330
6A
100
AcDbEntity
  8
0
100
AcDbCircle
 10
0.0175000005341192
 20
0.1296999985341201
 30
0.0
 40
0.0029999994658809
100
AcDbArc
 50
-0.0000102009455474
 51
90.00004839811905
  0
ARC
  5
1BF
330
6A
100
AcDbEntity
  8
0
100
AcDbCircle
 10
0.0135999992529536
 20
0.1316999947470689
 30
0.0
 40
0.0009999992529539
100
AcDbArc
 50
89.99961342242647
 51
180.0000428039273
  0
ARC
  5
1C0
330
6A
100
AcDbEntity
  8
0
100
AcDbCircle
 10
-0.0119000008643679
 20
0.1312000021356262
 30
0.0
 40
0.0006999991356321
210
0.0
220
0.0
230
-1.0
100
AcDbArc
 50
-179.9999888988258
 51
-89.99976554800865
  0
ARC
  5
1C1
330
6A
100
AcDbEntity
  8
0
100
AcDbCircle
 10
-0.013299999135634
 20
0.1220999961356441
 30
0.0
 40
0.0006999991356447
210
0.0
220
0.0
230
-1.0
100
AcDbArc
 50
-90.00007074940553
 51
0.0003163022212702
  0
ARC
  5
1C2
330
6A
100
AcDbEntity
  8
0
100
AcDbCircle
 10
0.0119000008643675
 20
0.1221000008643728
 30
0.0
 40
0.000699999135633
100
AcDbArc
 50
-0.0000707499689161
 51
90.00023445196111
  0
ARC
  5
1C3
330
6A
100
AcDbEntity
  8
0
100
AcDbCircle
 10
0.0111425123324586
 20
0.1192935320663473
 30
0.0
 40
0.0035067256334287
100
AcDbArc
 50
90.69461861284301
 51
134.3764494373565
  0
ARC
  5
1C4
330
6A
100
AcDbEntity
  8
0
100
AcDbCircle
 10
0.0046585782031961
 20
0.105500000887372
 30
0.0
 40
0.0002999998873721
100
AcDbArc
 50
-90.00003880760752
 51
45.00004265124935
  0
ARC
  5
1C5
330
6A
100
AcDbEntity
  8
0
100
AcDbCircle
 10
0.004999999112628
 20
0.1098828437968039
 30
0.0
 40
0.0002999998873721
100
AcDbArc
 50
-135.0000426512464
 51
0.0000388076055263
  0
ARC
  5
1C6
330
6A
100
AcDbEntity
  8
0
100
AcDbCircle
 10
0.005000000112628
 20
0.1151585762031961
 30
0.0
 40
0.0002999998873721
100
AcDbArc
 50
-0.0000388076055245
 51
135.0000426512464
  0
ARC
  5
1C7
330
6A
100
AcDbEntity
  8
0
100
AcDbCircle
 10
-0.0000000029467879
 20
0.112500004095067
 30
0.0
 40
0.0037000044956615
100
AcDbArc
 50
-66.49299896074764
 51
-23.01874447226146
  0
ARC
  5
1C8
330
6A
100
AcDbEntity
  8
0
100
AcDbCircle
 10
-0.0000000005
 20
0.1124999992972569
 30
0.0
 40
0.0037000007027431
100
AcDbArc
 50
23.50700557845911
 51
156.4929944215409
  0
ARC
  5
1C9
330
6A
100
AcDbEntity
  8
0
100
AcDbCircle
 10
0.0000000006548143
 20
0.1125000024245927
 30
0.0
 40
0.0037000020496387
100
AcDbArc
 50
-156.4929913038208
 51
-113.5069788103824
  0
ARC
  5
1CA
330
6A
100
AcDbEntity
  8
0
100
AcDbCircle
 10
-0.0111425123324586
 20
0.1192935320663473
 30
0.0
 40
0.0035067256334287
100
AcDbArc
 50
45.6235505626435
 51
89.30538138715704
  0
ARC
  5
1CB
330
6A
100
AcDbEntity
  8
0
100
AcDbCircle
 10
-0.0119000008643675
 20
0.1221000008643728
 30
0.0
 40
0.000699999135633
100
AcDbArc
 50
89.99976554803888
 51
180.0000707499689
  0
ARC
  5
1CC
330
6A
100
AcDbEntity
  8
0
100
AcDbCircle
 10
0.013299999135634
 20
0.1220999961356441
 30
0.0
 40
0.0006999991356447
210
0.0
220
0.0
230
-1.0
100
AcDbArc
 50
179.9996836977787
 51
270.0000707494055
  0
ARC
  5
1CD
330
6A
100
AcDbEntity
  8
0
100
AcDbCircle
 10
0.0184999997870446
 20
0.1233999992129551
 30
0.0
 40
0.0020000002129554
210
0.0
220
0.0
230
-1.0
100
AcDbArc
 50
-89.99996525139026
 51
-0.0000061007131274
  0
ARC
  5
1CE
330
6A
100
AcDbEntity
  8
0
100
AcDbCircle
 10
0.0175000005341191
 20
0.1296999985341201
 30
0.0
 40
0.0029999994658809
210
0.0
220
0.0
230
-1.0
100
AcDbArc
 50
-0.0000102009455474
 51
90.00004839811905
  0
ARC
  5
1CF
330
6A
100
AcDbEntity
  8
0
100
AcDbCircle
 10
0.0135999992529536
 20
0.1316999947470689
 30
0.0
 40
0.0009999992529539
210
0.0
220
0.0
230
-1.0
100
AcDbArc
 50
89.99961342242647
 51
180.0000428039273
  0
ARC
  5
1D0
330
6A
100
AcDbEntity
  8
0
100
AcDbCircle
 10
-0.0119000008643679
 20
0.1312000021356262
 30
0.0
 40
0.0006999991356321
100
AcDbArc
 50
-179.9999888988258
 51
-89.99976554800865
  0
ARC
  5
1D1
330
6A
100
AcDbEntity
  8
0
100
AcDbCircle
 10
0.005000000112628
 20
0.1098414247968039
 30
0.0
 40
0.0002999998873721
210
0.0
220
0.0
230
-1.0
100
AcDbArc
 50
-135.0000426512464
 51
0.0000388076055263
  0
ARC
  5
1D2
330
6A
100
AcDbEntity
  8
0
100
AcDbCircle
 10
0.005000000112628
 20
0.1151585782031961
 30
0.0
 40
0.0002999998873721
210
0.0
220
0.0
230
-1.0
100
AcDbArc
 50
-0.0000388076055245
 51
135.0000426512492
  0
ARC
  5
1D3
330
6A
100
AcDbEntity
  8
0
100
AcDbCircle
 10
0.005000000112628
 20
0.0251585782031961
 30
0.0
 40
0.0002999998873721
210
0.0
220
0.0
230
-1.0
100
AcDbArc
 50
-0.0000388076075124
 51
135.0000426512482
  0
ARC
  5
1D4
330
6A
100
AcDbEntity
  8
0
100
AcDbCircle
 10
0.0046585777759225
 20
0.029500000349859
 30
0.0
 40
0.000299999650142
210
0.0
220
0.0
230
-1.0
100
AcDbArc
 50
-45.00015203410042
 51
90.00014819045903
  0
ARC
  5
1D5
330
6A
100
AcDbEntity
  8
0
100
AcDbCircle
 10
0.0187000014941504
 20
0.1017000014941504
 30
0.0
 40
0.0019999985058502
210
0.0
220
0.0
230
-1.0
100
AcDbArc
 50
-0.0000428042871397
 51
90.00004280428742
  0
ARC
  5
1D6
330
6A
100
AcDbEntity
  8
0
100
AcDbCircle
 10
0.0046585772031961
 20
0.105499999887372
 30
0.0
 40
0.0002999998873721
210
0.0
220
0.0
230
-1.0
100
AcDbArc
 50
-90.0000388076072
 51
45.00004265124919
  0
ENDSEC
  0
SECTION
  2
OBJECTS
  0
DICTIONARY
  5
5E
330
0
100
AcDbDictionary
281
     1
  3
ACAD_CIP_PREVIOUS_PRODUCT_INFO
350
4CB
  3
ACAD_COLOR
350
4A8
  3
ACAD_DETAILVIEWSTYLE
350
4C2
  3
ACAD_GROUP
350
5C
  3
ACAD_LAYOUT
350
4A9
  3
ACAD_MATERIAL
350
476
  3
ACAD_MLEADERSTYLE
350
4BE
  3
ACAD_MLINESTYLE
350
5D
  3
ACAD_PLOTSETTINGS
350
4C5
  3
ACAD_PLOTSTYLENAME
350
474
  3
ACAD_RENDER_ACTIVE_RAPIDRT_SETTINGS
350
4D3
  3
ACAD_RENDER_RAPIDRT_SETTINGS
350
4CC
  3
ACAD_SCALELIST
350
4AC
  3
ACAD_SECTIONVIEWSTYLE
350
4C0
  3
ACAD_TABLESTYLE
350
4AA
  3
ACAD_VISUALSTYLE
350
48F
  3
ACDB_RECOMPOSE_DATA
350
4E9
  3
AcDbVariableDictionary
350
4D8
  0
DICTIONARY
  5
4D4
330
73
100
AcDbDictionary
280
     1
281
     1
  3
ADSK_XREC_LAYER_RECONCILED
360
4D5
  0
DICTIONARY
  5
4D6
330
1D7
100
AcDbDictionary
280
     1
281
     1
  3
ADSK_XREC_LAYER_RECONCILED
360
4D7
  0
XRECORD
  5
4CB
102
{ACAD_REACTORS
330
5E
102
}
330
5E
100
AcDbXrecord
280
     1
300
ACD
300
2021
300
87393ACD_2021_0F
  0
DICTIONARY
  5
4A8
102
{ACAD_REACTORS
330
5E
102
}
330
5E
100
AcDbDictionary
281
     1
  0
DICTIONARY
  5
4C2
102
{ACAD_REACTORS
330
5E
102
}
330
5E
100
AcDbDictionary
281
     1
  3
Imperial24
350
4C3
  0
DICTIONARY
  5
5C
330
5E
100
AcDbDictionary
281
     1
  0
DICTIONARY
  5
4A9
102
{ACAD_REACTORS
330
5E
102
}
330
5E
100
AcDbDictionary
281
     1
  3
Layout1
350
4C7
  3
Model
350
4C6
  0
DICTIONARY
  5
476
102
{ACAD_REACTORS
330
5E
102
}
330
5E
100
AcDbDictionary
281
     1
  3
ByBlock
350
47F
  3
ByLayer
350
477
  3
Global
350
487
  0
DICTIONARY
  5
4BE
102
{ACAD_REACTORS
330
5E
102
}
330
5E
100
AcDbDictionary
281
     1
  3
Standard
350
4BF
  0
DICTIONARY
  5
5D
330
5E
100
AcDbDictionary
281
     1
  3
STANDARD
350
5B
  0
DICTIONARY
  5
4C5
102
{ACAD_REACTORS
330
5E
102
}
330
5E
100
AcDbDictionary
281
     1
  0
ACDBDICTIONARYWDFLT
  5
474
102
{ACAD_REACTORS
330
5E
102
}
330
5E
100
AcDbDictionary
281
     1
  3
Normal
350
475
100
AcDbDictionaryWithDefault
340
475
  0
RAPIDRTRENDERSETTINGS
  5
4D3
102
{ACAD_REACTORS
330
5E
102
}
330
5E
100
AcDbRenderSettings
 90
        2
  1
Mittel
290
     1
290
     0
290
     1
290
     1
  1

  1
Wendet 5 Render-Ebenen an
 90
        0
100
AcDbRapidRTRenderSettings
 90
        3
 70
     0
 90
        5
 90
        1
 70
     1
 70
     2
 40
3.0
 40
3.0
290
     1
  0
DICTIONARY
  5
4CC
102
{ACAD_REACTORS
330
5E
102
}
330
5E
100
AcDbDictionary
281
     1
  3
Hoch
350
4CF
  3
Mittagsqualität
350
4D1
  3
Mittel
350
4CE
  3
Morgenqualität
350
4D0
  3
Nachtqualität
350
4D2
  3
Niedrig
350
4CD
  0
DICTIONARY
  5
4AC
102
{ACAD_REACTORS
330
5E
102
}
330
5E
100
AcDbDictionary
281
     1
  3
A0
350
4AD
  3
A1
350
4AE
  3
A2
350
4AF
  3
A3
350
4B0
  3
A4
350
4B1
  3
A5
350
4B2
  3
A6
350
4B3
  3
A7
350
4B4
  3
A8
350
4B5
  3
A9
350
4B6
  3
B0
350
4B7
  3
B1
350
4B8
  3
B2
350
4B9
  3
B3
350
4BA
  3
B4
350
4BB
  3
B5
350
4BC
  3
B6
350
4BD
  0
DICTIONARY
  5
4C0
102
{ACAD_REACTORS
330
5E
102
}
330
5E
100
AcDbDictionary
281
     1
  3
Imperial24
350
4C1
  0
DICTIONARY
  5
4AA
102
{ACAD_REACTORS
330
5E
102
}
330
5E
100
AcDbDictionary
281
     1
  3
Standard
350
4AB
  0
DICTIONARY
  5
48F
102
{ACAD_REACTORS
330
5E
102
}
330
5E
100
AcDbDictionary
281
     1
  3
2dWireframe
350
495
  3
Basic
350
494
  3
Brighten
350
49B
  3
ColorChange
350
49F
  3
Conceptual
350
498
  3
Dim
350
49A
  3
EdgeColorOff
350
4A7
  3
Facepattern
350
49E
  3
Flat
350
490
  3
FlatWithEdges
350
491
  3
Gouraud
350
492
  3
GouraudWithEdges
350
493
  3
Hidden
350
497
  3
JitterOff
350
4A5
  3
Linepattern
350
49D
  3
OverhangOff
350
4A6
  3
Realistic
350
499
  3
Shaded
350
4A4
  3
Shaded with edges
350
4A3
  3
Shades of Gray
350
4A0
  3
Sketchy
350
4A1
  3
Thicken
350
49C
  3
Wireframe
350
496
  3
X-Ray
350
4A2
  0
XRECORD
  5
4E9
102
{ACAD_REACTORS
330
5E
102
}
330
5E
100
AcDbXrecord
280
     1
 90
        1
330
4AB
  0
DICTIONARY
  5
4D8
102
{ACAD_REACTORS
330
5E
102
}
330
5E
100
AcDbDictionary
281
     1
  3
CANNOSCALE
350
4DE
  3
CMLEADERSTYLE
350
4DA
  3
CTABLESTYLE
350
4D9
  3
CVIEWDETAILSTYLE
350
4DB
  3
CVIEWSECTIONSTYLE
350
4DC
  3
LAYEREVAL
350
4E0
  3
LAYERNOTIFY
350
4E1
  3
LIGHTINGUNITS
350
4DF
  3
MSLTSCALE
350
4DD
  0
XRECORD
  5
4D5
102
{ACAD_REACTORS
330
4D4
102
}
330
4D4
100
AcDbXrecord
280
     1
290
     1
  0
XRECORD
  5
4D7
102
{ACAD_REACTORS
330
4D6
102
}
330
4D6
100
AcDbXrecord
280
     1
290
     1
  0
ACDBDETAILVIEWSTYLE
  5
4C3
102
{ACAD_REACTORS
330
4C2
102
}
330
4C2
100
AcDbModelDocViewStyle
 70
     0
  3
Imperial24
290
     0
300
Imperial24
 90
        0
100
AcDbDetailViewStyle
 70
     0
 71
     0
 90
        3
 71
     1
340
473
 62
   256
 40
0.24
340
0
 62
   256
 40
0.24
300

 40
0.36
280
     3
 71
     2
340
6F
 90
       25
 62
   256
 71
     3
340
473
 62
   256
 40
0.24
 90
        1
 40
0.75
 90
        1
300
%<\AcVar ViewType \f "%tc1">% %<\AcVar ViewDetailId>%\PVARIA %<\AcVar ViewScale \f "%sn">%
 71
     4
340
6F
 90
       25
 62
   256
340
6F
 90
       25
 62
   256
280
     0
  0
LAYOUT
  5
4C7
102
{ACAD_REACTORS
330
4A9
102
}
330
4A9
100
AcDbPlotSettings
  1

  2
OneNote for Windows 10
  4

  6

 40
0.0
 41
0.0
 42
0.0
 43
0.0
 44
0.0
 45
0.0
 46
0.0
 47
0.0
 48
0.0
 49
0.0
140
0.0
141
0.0
142
1.0
143
1.0
 70
   688
 72
     0
 73
     0
 74
     5
  7

 75
    16
147
1.0
 76
     0
 77
     2
 78
   300
148
0.0
149
0.0
100
AcDbLayout
  1
Layout1
 70
     1
 71
     1
 10
0.0
 20
0.0
 11
12.0
 21
9.0
 12
0.0
 22
0.0
 32
0.0
 14
1.000000000000000E+20
 24
1.000000000000000E+20
 34
1.000000000000000E+20
 15
-1.000000000000000E+20
 25
-1.000000000000000E+20
 35
-1.000000000000000E+20
146
0.0
 13
0.0
 23
0.0
 33
0.0
 16
1.0
 26
0.0
 36
0.0
 17
0.0
 27
1.0
 37
0.0
 76
     0
330
6B
  0
LAYOUT
  5
4C6
102
{ACAD_REACTORS
330
4A9
102
}
330
4A9
100
AcDbPlotSettings
  1

  2
OneNote for Windows 10
  4

  6

 40
0.0
 41
0.0
 42
0.0
 43
0.0
 44
0.0
 45
0.0
 46
0.0
 47
0.0
 48
0.0
 49
0.0
140
0.0
141
0.0
142
1.0
143
1.0
 70
  1712
 72
     0
 73
     0
 74
     0
  7

 75
     0
147
1.0
 76
     0
 77
     2
 78
   300
148
0.0
149
0.0
100
AcDbLayout
  1
Model
 70
     1
 71
     0
 10
0.0
 20
0.0
 11
12.0
 21
9.0
 12
0.0
 22
0.0
 32
0.0
 14
0.0
 24
0.0
 34
0.0
 15
0.0
 25
0.0
 35
0.0
146
0.0
 13
0.0
 23
0.0
 33
0.0
 16
1.0
 26
0.0
 36
0.0
 17
0.0
 27
1.0
 37
0.0
 76
     0
330
6A
331
4CA
  0
MATERIAL
  5
47F
102
{ACAD_XDICTIONARY
360
480
102
}
102
{ACAD_REACTORS
330
476
102
}
330
476
100
AcDbMaterial
  1
ByBlock
 72
     0
 43
0.0208333333333333
 43
0.0
 43
0.0
 43
0.0
 43
0.0
 43
0.0208333333333333
 43
0.0
 43
0.0
 43
0.0
 43
0.0
 43
1.0
 43
0.0
 43
0.0
 43
0.0
 43
0.0
 43
1.0
 77
     0
 47
0.0208333333333333
 47
0.0
 47
0.0
 47
0.0
 47
0.0
 47
0.0208333333333333
 47
0.0
 47
0.0
 47
0.0
 47
0.0
 47
1.0
 47
0.0
 47
0.0
 47
0.0
 47
0.0
 47
1.0
171
     0
 49
0.0208333333333333
 49
0.0
 49
0.0
 49
0.0
 49
0.0
 49
0.0208333333333333
 49
0.0
 49
0.0
 49
0.0
 49
0.0
 49
1.0
 49
0.0
 49
0.0
 49
0.0
 49
0.0
 49
1.0
175
     0
142
0.0208333333333333
142
0.0
142
0.0
142
0.0
142
0.0
142
0.0208333333333333
142
0.0
142
0.0
142
0.0
142
0.0
142
1.0
142
0.0
142
0.0
142
0.0
142
0.0
142
1.0
179
     0
144
0.0208333333333333
144
0.0
144
0.0
144
0.0
144
0.0
144
0.0208333333333333
144
0.0
144
0.0
144
0.0
144
0.0
144
1.0
144
0.0
144
0.0
144
0.0
144
0.0
144
1.0
147
0.0208333333333333
147
0.0
147
0.0
147
0.0
147
0.0
147
0.0208333333333333
147
0.0
147
0.0
147
0.0
147
0.0
147
1.0
147
0.0
147
0.0
147
0.0
147
0.0
147
1.0
  0
MATERIAL
  5
477
102
{ACAD_XDICTIONARY
360
478
102
}
102
{ACAD_REACTORS
330
476
102
}
330
476
100
AcDbMaterial
  1
ByLayer
 72
     0
 43
0.0208333333333333
 43
0.0
 43
0.0
 43
0.0
 43
0.0
 43
0.0208333333333333
 43
0.0
 43
0.0
 43
0.0
 43
0.0
 43
1.0
 43
0.0
 43
0.0
 43
0.0
 43
0.0
 43
1.0
 77
     0
 47
0.0208333333333333
 47
0.0
 47
0.0
 47
0.0
 47
0.0
 47
0.0208333333333333
 47
0.0
 47
0.0
 47
0.0
 47
0.0
 47
1.0
 47
0.0
 47
0.0
 47
0.0
 47
0.0
 47
1.0
171
     0
 49
0.0208333333333333
 49
0.0
 49
0.0
 49
0.0
 49
0.0
 49
0.0208333333333333
 49
0.0
 49
0.0
 49
0.0
 49
0.0
 49
1.0
 49
0.0
 49
0.0
 49
0.0
 49
0.0
 49
1.0
175
     0
142
0.0208333333333333
142
0.0
142
0.0
142
0.0
142
0.0
142
0.0208333333333333
142
0.0
142
0.0
142
0.0
142
0.0
142
1.0
142
0.0
142
0.0
142
0.0
142
0.0
142
1.0
179
     0
144
0.0208333333333333
144
0.0
144
0.0
144
0.0
144
0.0
144
0.0208333333333333
144
0.0
144
0.0
144
0.0
144
0.0
144
1.0
144
0.0
144
0.0
144
0.0
144
0.0
144
1.0
147
0.0208333333333333
147
0.0
147
0.0
147
0.0
147
0.0
147
0.0208333333333333
147
0.0
147
0.0
147
0.0
147
0.0
147
1.0
147
0.0
147
0.0
147
0.0
147
0.0
147
1.0
  0
MATERIAL
  5
487
102
{ACAD_XDICTIONARY
360
488
102
}
102
{ACAD_REACTORS
330
476
102
}
330
476
100
AcDbMaterial
  1
Global
 72
     0
 43
0.0208333333333333
 43
0.0
 43
0.0
 43
0.0
 43
0.0
 43
0.0208333333333333
 43
0.0
 43
0.0
 43
0.0
 43
0.0
 43
1.0
 43
0.0
 43
0.0
 43
0.0
 43
0.0
 43
1.0
 77
     0
 47
0.0208333333333333
 47
0.0
 47
0.0
 47
0.0
 47
0.0
 47
0.0208333333333333
 47
0.0
 47
0.0
 47
0.0
 47
0.0
 47
1.0
 47
0.0
 47
0.0
 47
0.0
 47
0.0
 47
1.0
171
     0
 49
0.0208333333333333
 49
0.0
 49
0.0
 49
0.0
 49
0.0
 49
0.0208333333333333
 49
0.0
 49
0.0
 49
0.0
 49
0.0
 49
1.0
 49
0.0
 49
0.0
 49
0.0
 49
0.0
 49
1.0
175
     0
142
0.0208333333333333
142
0.0
142
0.0
142
0.0
142
0.0
142
0.0208333333333333
142
0.0
142
0.0
142
0.0
142
0.0
142
1.0
142
0.0
142
0.0
142
0.0
142
0.0
142
1.0
179
     0
144
0.0208333333333333
144
0.0
144
0.0
144
0.0
144
0.0
144
0.0208333333333333
144
0.0
144
0.0
144
0.0
144
0.0
144
1.0
144
0.0
144
0.0
144
0.0
144
0.0
144
1.0
147
0.0208333333333333
147
0.0
147
0.0
147
0.0
147
0.0
147
0.0208333333333333
147
0.0
147
0.0
147
0.0
147
0.0
147
1.0
147
0.0
147
0.0
147
0.0
147
0.0
147
1.0
  0
MLEADERSTYLE
  5
4BF
102
{ACAD_REACTORS
330
4BE
102
}
330
4BE
100
AcDbMLeaderStyle
179
     2
170
     2
171
     1
172
     0
 90
        2
 40
0.0
 41
0.0
173
     1
 91
-1056964608
340
6D
 92
       -2
290
     1
 42
0.09
291
     1
 43
0.36
  3
Standard
 44
0.18
300

342
473
174
     1
178
     6
175
     1
176
     0
 93
-1056964608
 45
0.18
292
     0
297
     0
 46
0.18
 94
-1056964608
 47
1.0
 49
1.0
140
1.0
293
     1
141
0.0
294
     1
177
     0
142
1.0
295
     0
296
     0
143
0.125
271
     0
272
     9
273
     9
298
     0
  0
MLINESTYLE
  5
5B
330
5D
100
AcDbMlineStyle
  2
STANDARD
 70
     0
  3

 62
   256
 51
90.0
 52
90.0
 71
     2
 49
0.5
 62
   256
  6
CONTINUOUS
 49
-0.5
 62
   256
  6
CONTINUOUS
  0
ACDBPLACEHOLDER
  5
475
102
{ACAD_REACTORS
330
474
102
}
330
474
  0
RAPIDRTRENDERSETTINGS
  5
4CF
102
{ACAD_REACTORS
330
4CC
102
}
330
4CC
100
AcDbRenderSettings
 90
        2
  1
Hoch
290
     1
290
     0
290
     1
290
     1
  1

  1
Wendet 10 Render-Ebenen an
 90
        2
100
AcDbRapidRTRenderSettings
 90
        3
 70
     0
 90
       10
 90
        1
 70
     2
 70
     2
 40
3.0
 40
3.0
290
     1
  0
RAPIDRTRENDERSETTINGS
  5
4D1
102
{ACAD_REACTORS
330
4CC
102
}
330
4CC
100
AcDbRenderSettings
 90
        2
  1
Mittagsqualität
290
     1
290
     0
290
     1
290
     1
  1

  1
Rendert für 60 Minuten
 90
        4
100
AcDbRapidRTRenderSettings
 90
        3
 70
     1
 90
        1
 90
       60
 70
     2
 70
     2
 40
3.0
 40
3.0
290
     1
  0
RAPIDRTRENDERSETTINGS
  5
4CE
102
{ACAD_REACTORS
330
4CC
102
}
330
4CC
100
AcDbRenderSettings
 90
        2
  1
Mittel
290
     1
290
     0
290
     1
290
     1
  1

  1
Wendet 5 Render-Ebenen an
 90
        1
100
AcDbRapidRTRenderSettings
 90
        3
 70
     0
 90
        5
 90
        1
 70
     1
 70
     2
 40
3.0
 40
3.0
290
     1
  0
RAPIDRTRENDERSETTINGS
  5
4D0
102
{ACAD_REACTORS
330
4CC
102
}
330
4CC
100
AcDbRenderSettings
 90
        2
  1
Morgenqualität
290
     1
290
     0
290
     1
290
     1
  1

  1
Rendert für 10 Minuten
 90
        3
100
AcDbRapidRTRenderSettings
 90
        3
 70
     1
 90
        1
 90
       10
 70
     1
 70
     2
 40
3.0
 40
3.0
290
     1
  0
RAPIDRTRENDERSETTINGS
  5
4D2
102
{ACAD_REACTORS
330
4CC
102
}
330
4CC
100
AcDbRenderSettings
 90
        2
  1
Nachtqualität
290
     1
290
     0
290
     1
290
     1
  1

  1
Rendert für 12 Stunden
 90
        5
100
AcDbRapidRTRenderSettings
 90
        3
 70
     1
 90
        1
 90
      720
 70
     2
 70
     2
 40
3.0
 40
3.0
290
     1
  0
RAPIDRTRENDERSETTINGS
  5
4CD
102
{ACAD_REACTORS
330
4CC
102
}
330
4CC
100
AcDbRenderSettings
 90
        2
  1
Niedrig
290
     1
290
     0
290
     1
290
     1
  1

  1
Wendet 1 Render-Ebene an
 90
        0
100
AcDbRapidRTRenderSettings
 90
        3
 70
     0
 90
        1
 90
        1
 70
     0
 70
     2
 40
3.0
 40
3.0
290
     1
  0
SCALE
  5
4AD
102
{ACAD_REACTORS
330
4AC
102
}
330
4AC
100
AcDbScale
 70
     0
300
1:1
140
1.0
141
1.0
290
     1
  0
SCALE
  5
4AE
102
{ACAD_REACTORS
330
4AC
102
}
330
4AC
100
AcDbScale
 70
     0
300
1/128" = 1'-0"
140
0.0078125
141
12.0
290
     0
  0
SCALE
  5
4AF
102
{ACAD_REACTORS
330
4AC
102
}
330
4AC
100
AcDbScale
 70
     0
300
1/64" = 1'-0"
140
0.015625
141
12.0
290
     0
  0
SCALE
  5
4B0
102
{ACAD_REACTORS
330
4AC
102
}
330
4AC
100
AcDbScale
 70
     0
300
1/32" = 1'-0"
140
0.03125
141
12.0
290
     0
  0
SCALE
  5
4B1
102
{ACAD_REACTORS
330
4AC
102
}
330
4AC
100
AcDbScale
 70
     0
300
1/16" = 1'-0"
140
0.0625
141
12.0
290
     0
  0
SCALE
  5
4B2
102
{ACAD_REACTORS
330
4AC
102
}
330
4AC
100
AcDbScale
 70
     0
300
3/32" = 1'-0"
140
0.09375
141
12.0
290
     0
  0
SCALE
  5
4B3
102
{ACAD_REACTORS
330
4AC
102
}
330
4AC
100
AcDbScale
 70
     0
300
1/8" = 1'-0"
140
0.125
141
12.0
290
     0
  0
SCALE
  5
4B4
102
{ACAD_REACTORS
330
4AC
102
}
330
4AC
100
AcDbScale
 70
     0
300
3/16" = 1'-0"
140
0.1875
141
12.0
290
     0
  0
SCALE
  5
4B5
102
{ACAD_REACTORS
330
4AC
102
}
330
4AC
100
AcDbScale
 70
     0
300
1/4" = 1'-0"
140
0.25
141
12.0
290
     0
  0
SCALE
  5
4B6
102
{ACAD_REACTORS
330
4AC
102
}
330
4AC
100
AcDbScale
 70
     0
300
3/8" = 1'-0"
140
0.375
141
12.0
290
     0
  0
SCALE
  5
4B7
102
{ACAD_REACTORS
330
4AC
102
}
330
4AC
100
AcDbScale
 70
     0
300
1/2" = 1'-0"
140
0.5
141
12.0
290
     0
  0
SCALE
  5
4B8
102
{ACAD_REACTORS
330
4AC
102
}
330
4AC
100
AcDbScale
 70
     0
300
3/4" = 1'-0"
140
0.75
141
12.0
290
     0
  0
SCALE
  5
4B9
102
{ACAD_REACTORS
330
4AC
102
}
330
4AC
100
AcDbScale
 70
     0
300
1" = 1'-0"
140
1.0
141
12.0
290
     0
  0
SCALE
  5
4BA
102
{ACAD_REACTORS
330
4AC
102
}
330
4AC
100
AcDbScale
 70
     0
300
1-1/2" = 1'-0"
140
1.5
141
12.0
290
     0
  0
SCALE
  5
4BB
102
{ACAD_REACTORS
330
4AC
102
}
330
4AC
100
AcDbScale
 70
     0
300
3" = 1'-0"
140
3.0
141
12.0
290
     0
  0
SCALE
  5
4BC
102
{ACAD_REACTORS
330
4AC
102
}
330
4AC
100
AcDbScale
 70
     0
300
6" = 1'-0"
140
6.0
141
12.0
290
     0
  0
SCALE
  5
4BD
102
{ACAD_REACTORS
330
4AC
102
}
330
4AC
100
AcDbScale
 70
     0
300
1'-0" = 1'-0"
140
12.0
141
12.0
290
     0
  0
ACDBSECTIONVIEWSTYLE
  5
4C1
102
{ACAD_REACTORS
330
4C0
102
}
330
4C0
100
AcDbModelDocViewStyle
 70
     0
  3
Imperial24
290
     0
300
Imperial24
 90
        0
100
AcDbSectionViewStyle
 70
     0
 71
     0
 90
       78
 71
     1
340
473
 62
   256
 40
0.24
340
0
340
0
 62
   256
 40
0.24
300
I, O, Q, S, X, Z
 40
0.48
 90
        3
 40
0.18
 90
        1
 71
     2
340
6F
 90
       25
 62
   256
340
6F
 90
       50
 62
   256
 40
0.24
 40
0.0
 40
0.24
 71
     3
340
473
 62
   256
 40
0.24
 90
        1
 40
0.75
 90
        1
300
%<\AcVar ViewType \f "%tc1">% %<\AcVar ViewSectionStartId>%-%<\AcVar ViewSectionEndId>%\PVARIA %<\AcVar ViewScale \f "%sn">%
 71
     4
 62
   256
 62
   257
300
ANSI31
 40
1.0
 90
        0
290
     0
290
     0
 90
        6
 40
0.0
 40
1.570796326794896
 40
0.2617993877991494
 40
1.308996938995747
 40
-0.2617993877991494
 40
1.832595714594045
  0
TABLESTYLE
  5
4AB
102
{ACAD_XDICTIONARY
360
4E2
102
}
102
{ACAD_REACTORS
330
4AA
102
}
330
4AA
100
AcDbTableStyle
280
     0
  3
Standard
 70
     0
 71
     0
 40
0.06
 41
0.06
280
     0
281
     0
  7
Standard
140
0.18
170
     2
 62
     0
 63
     7
283
     0
 90
      512
 91
        0
  1

274
    -2
284
     1
 64
     0
275
    -2
285
     1
 65
     0
276
    -2
286
     1
 66
     0
277
    -2
287
     1
 67
     0
278
    -2
288
     1
 68
     0
279
    -2
289
     1
 69
     0
  7
Standard
140
0.25
170
     5
 62
     0
 63
     7
283
     0
 90
      512
 91
        0
  1

274
    -2
284
     1
 64
     0
275
    -2
285
     1
 65
     0
276
    -2
286
     1
 66
     0
277
    -2
287
     1
 67
     0
278
    -2
288
     1
 68
     0
279
    -2
289
     1
 69
     0
  7
Standard
140
0.18
170
     5
 62
     0
 63
     7
283
     0
 90
      512
 91
        0
  1

274
    -2
284
     1
 64
     0
275
    -2
285
     1
 65
     0
276
    -2
286
     1
 66
     0
277
    -2
287
     1
 67
     0
278
    -2
288
     1
 68
     0
279
    -2
289
     1
 69
     0
  0
VISUALSTYLE
  5
495
102
{ACAD_REACTORS
330
48F
102
}
330
48F
100
AcDbVisualStyle
  2
2dWireframe
 70
     4
177
     3
291
     0
 70
    58
 90
        0
176
     1
 90
        2
176
     1
 90
        0
176
     1
 90
        0
176
     1
 40
0.6
176
     1
 40
30.0
176
     1
 62
     7
420
 16777215
176
     1
 90
        1
176
     1
 90
        4
176
     1
 62
     7
176
     1
 62
   257
176
     1
 90
        1
176
     1
 90
        1
176
     1
 40
1.0
176
     1
 90
        0
176
     1
 62
   257
176
     1
 40
1.0
176
     1
 90
        1
176
     1
 90
        6
176
     1
 90
        2
176
     1
 62
     7
176
     1
 90
        5
176
     1
 90
        0
176
     1
 90
        0
176
     1
290
     0
176
     1
 90
        1
176
     1
 40
0.0
176
     1
 90
        0
176
     1
290
     1
176
     1
290
     1
176
     1
290
     0
176
     1
290
     0
176
     1
290
     0
176
     1
290
     0
176
     1
290
     0
176
     1
290
     0
176
     1
290
     0
176
     1
 90
       50
176
     1
 40
0.0
176
     1
 40
1.0
176
     1
 90
        0
176
     1
 62
    18
176
     1
 90
       50
176
     1
 90
        3
176
     1
 62
     5
420
      255
176
     1
290
     0
176
     1
 90
       50
176
     1
 90
       50
176
     1
 90
       50
176
     1
290
     0
176
     1
 90
       50
176
     1
 62
   256
176
     0
 40
1.0
176
     0
 90
        2
176
     1
  1
strokes_ogs.tif
176
     1
290
     0
176
     1
 40
1.0
176
     1
 40
1.0
176
     1
  0
VISUALSTYLE
  5
494
102
{ACAD_REACTORS
330
48F
102
}
330
48F
100
AcDbVisualStyle
  2
Basic
 70
     7
177
     3
291
     1
 70
    58
 90
        1
176
     1
 90
        0
176
     1
 90
        1
176
     1
 90
        0
176
     1
 40
0.6
176
     1
 40
30.0
176
     1
 62
     7
420
 16777215
176
     1
 90
        0
176
     1
 90
        4
176
     1
 62
     7
176
     1
 62
   257
176
     1
 90
        1
176
     1
 90
        1
176
     1
 40
1.0
176
     1
 90
        8
176
     1
 62
     7
176
     1
 40
1.0
176
     1
 90
        1
176
     1
 90
        6
176
     1
 90
        2
176
     1
 62
     7
176
     1
 90
        5
176
     1
 90
        0
176
     1
 90
        0
176
     1
290
     0
176
     1
 90
        1
176
     1
 40
0.0
176
     1
 90
        0
176
     1
290
     0
176
     1
290
     1
176
     1
290
     1
176
     1
290
     0
176
     1
290
     0
176
     1
290
     0
176
     1
290
     0
176
     1
290
     0
176
     1
290
     0
176
     1
 90
       50
176
     1
 40
0.0
176
     1
 40
1.0
176
     1
 90
        0
176
     1
 62
    18
176
     1
 90
       50
176
     1
 90
        3
176
     1
 62
     5
420
      255
176
     1
290
     0
176
     1
 90
       50
176
     1
 90
       50
176
     1
 90
       50
176
     1
290
     0
176
     1
 90
       50
176
     1
 62
   256
176
     0
 40
1.0
176
     0
 90
        2
176
     1
  1
strokes_ogs.tif
176
     1
290
     0
176
     1
 40
1.0
176
     1
 40
1.0
176
     1
  0
VISUALSTYLE
  5
49B
102
{ACAD_REACTORS
330
48F
102
}
330
48F
100
AcDbVisualStyle
  2
Brighten
 70
    12
177
     3
291
     1
 70
    58
 90
        2
176
     1
 90
        2
176
     1
 90
        0
176
     1
 90
        0
176
     1
 40
0.6
176
     1
 40
30.0
176
     1
 62
     7
420
 16777215
176
     1
 90
        1
176
     1
 90
        4
176
     1
 62
     7
176
     1
 62
   257
176
     1
 90
        1
176
     1
 90
        1
176
     1
 40
1.0
176
     1
 90
        8
176
     1
 62
     7
176
     1
 40
1.0
176
     1
 90
        1
176
     1
 90
        6
176
     1
 90
        2
176
     1
 62
     7
176
     1
 90
        5
176
     1
 90
        0
176
     1
 90
        0
176
     1
290
     0
176
     1
 90
        1
176
     1
 40
50.0
176
     1
 90
        0
176
     1
290
     0
176
     1
290
     1
176
     1
290
     1
176
     1
290
     0
176
     1
290
     0
176
     1
290
     0
176
     1
290
     0
176
     1
290
     0
176
     1
290
     0
176
     1
 90
       50
176
     1
 40
0.0
176
     1
 40
1.0
176
     1
 90
        0
176
     1
 62
    18
176
     1
 90
       50
176
     1
 90
        3
176
     1
 62
     5
420
      255
176
     1
290
     0
176
     1
 90
       50
176
     1
 90
       50
176
     1
 90
       50
176
     1
290
     0
176
     1
 90
       50
176
     1
 62
   256
176
     0
 40
1.0
176
     0
 90
        2
176
     1
  1
strokes_ogs.tif
176
     1
290
     0
176
     1
 40
1.0
176
     1
 40
1.0
176
     1
  0
VISUALSTYLE
  5
49F
102
{ACAD_REACTORS
330
48F
102
}
330
48F
100
AcDbVisualStyle
  2
ColorChange
 70
    16
177
     3
291
     1
 70
    58
 90
        2
176
     1
 90
        2
176
     1
 90
        3
176
     1
 90
        0
176
     1
 40
0.6
176
     1
 40
30.0
176
     1
 62
     8
420
  8421504
176
     1
 90
        1
176
     1
 90
        4
176
     1
 62
     7
176
     1
 62
   257
176
     1
 90
        1
176
     1
 90
        1
176
     1
 40
1.0
176
     1
 90
        8
176
     1
 62
     8
420
  8421504
176
     1
 40
1.0
176
     1
 90
        1
176
     1
 90
        6
176
     1
 90
        2
176
     1
 62
     7
176
     1
 90
        5
176
     1
 90
        0
176
     1
 90
        0
176
     1
290
     0
176
     1
 90
        1
176
     1
 40
0.0
176
     1
 90
        0
176
     1
290
     0
176
     1
290
     1
176
     1
290
     1
176
     1
290
     0
176
     1
290
     0
176
     1
290
     0
176
     1
290
     0
176
     1
290
     0
176
     1
290
     0
176
     1
 90
       50
176
     1
 40
0.0
176
     1
 40
1.0
176
     1
 90
        0
176
     1
 62
    18
176
     1
 90
       50
176
     1
 90
        3
176
     1
 62
     5
420
      255
176
     1
290
     0
176
     1
 90
       50
176
     1
 90
       50
176
     1
 90
       50
176
     1
290
     0
176
     1
 90
       50
176
     1
 62
   256
176
     0
 40
1.0
176
     0
 90
        2
176
     1
  1
strokes_ogs.tif
176
     1
290
     0
176
     1
 40
1.0
176
     1
 40
1.0
176
     1
  0
VISUALSTYLE
  5
498
102
{ACAD_REACTORS
330
48F
102
}
330
48F
100
AcDbVisualStyle
  2
Conceptual
 70
     9
177
     3
291
     0
 70
    58
 90
        3
176
     1
 90
        2
176
     1
 90
        0
176
     1
 90
        0
176
     1
 40
0.6
176
     1
 40
30.0
176
     1
 62
     7
420
 16777215
176
     1
 90
        2
176
     1
 90
        2
176
     1
 62
     7
176
     1
 62
   257
176
     1
 90
        1
176
     1
 90
        1
176
     1
 40
179.0
176
     1
 90
        8
176
     1
 62
     7
176
     1
 40
1.0
176
     1
 90
        1
176
     1
 90
        6
176
     1
 90
        2
176
     1
 62
     7
176
     1
 90
        3
176
     1
 90
        0
176
     1
 90
        0
176
     1
290
     0
176
     1
 90
        1
176
     1
 40
0.0
176
     1
 90
        0
176
     1
290
     0
176
     1
290
     1
176
     1
290
     1
176
     1
290
     0
176
     1
290
     0
176
     1
290
     0
176
     1
290
     0
176
     1
290
     0
176
     1
290
     0
176
     1
 90
       50
176
     1
 40
0.0
176
     1
 40
1.0
176
     1
 90
        0
176
     1
 62
    18
176
     1
 90
       50
176
     1
 90
        3
176
     1
 62
     5
420
      255
176
     1
290
     0
176
     1
 90
       50
176
     1
 90
       50
176
     1
 90
       50
176
     1
290
     0
176
     1
 90
       50
176
     1
 62
   256
176
     0
 40
1.0
176
     0
 90
        2
176
     1
  1
strokes_ogs.tif
176
     1
290
     0
176
     1
 40
1.0
176
     1
 40
1.0
176
     1
  0
VISUALSTYLE
  5
49A
102
{ACAD_REACTORS
330
48F
102
}
330
48F
100
AcDbVisualStyle
  2
Dim
 70
    11
177
     3
291
     1
 70
    58
 90
        2
176
     1
 90
        2
176
     1
 90
        0
176
     1
 90
        0
176
     1
 40
0.6
176
     1
 40
30.0
176
     1
 62
     7
420
 16777215
176
     1
 90
        1
176
     1
 90
        4
176
     1
 62
     7
176
     1
 62
   257
176
     1
 90
        1
176
     1
 90
        1
176
     1
 40
1.0
176
     1
 90
        8
176
     1
 62
     7
176
     1
 40
1.0
176
     1
 90
        1
176
     1
 90
        6
176
     1
 90
        2
176
     1
 62
     7
176
     1
 90
        5
176
     1
 90
        0
176
     1
 90
        0
176
     1
290
     0
176
     1
 90
        1
176
     1
 40
-50.0
176
     1
 90
        0
176
     1
290
     0
176
     1
290
     1
176
     1
290
     1
176
     1
290
     0
176
     1
290
     0
176
     1
290
     0
176
     1
290
     0
176
     1
290
     0
176
     1
290
     0
176
     1
 90
       50
176
     1
 40
0.0
176
     1
 40
1.0
176
     1
 90
        0
176
     1
 62
    18
176
     1
 90
       50
176
     1
 90
        3
176
     1
 62
     5
420
      255
176
     1
290
     0
176
     1
 90
       50
176
     1
 90
       50
176
     1
 90
       50
176
     1
290
     0
176
     1
 90
       50
176
     1
 62
   256
176
     0
 40
1.0
176
     0
 90
        2
176
     1
  1
strokes_ogs.tif
176
     1
290
     0
176
     1
 40
1.0
176
     1
 40
1.0
176
     1
  0
VISUALSTYLE
  5
4A7
102
{ACAD_REACTORS
330
48F
102
}
330
48F
100
AcDbVisualStyle
  2
EdgeColorOff
 70
    22
177
     3
291
     1
 70
    58
 90
        2
176
     0
 90
        2
176
     0
 90
        0
176
     0
 90
        0
176
     0
 40
0.6
176
     0
 40
30.0
176
     0
 62
     7
420
 16777215
176
     0
 90
        1
176
     0
 90
        4
176
     0
 62
     7
176
     0
 62
   257
176
     0
 90
        1
176
     0
 90
        1
176
     0
 40
1.0
176
     0
 90
        8
176
     2
 62
     7
176
     0
 40
1.0
176
     0
 90
        1
176
     0
 90
        6
176
     0
 90
        2
176
     0
 62
     7
176
     0
 90
        5
176
     0
 90
        0
176
     0
 90
        0
176
     0
290
     0
176
     0
 90
        1
176
     0
 40
0.0
176
     0
 90
        0
176
     0
290
     0
176
     1
290
     1
176
     1
290
     1
176
     1
290
     0
176
     1
290
     0
176
     1
290
     0
176
     1
290
     0
176
     1
290
     0
176
     1
290
     0
176
     1
 90
       50
176
     0
 40
0.0
176
     0
 40
1.0
176
     0
 90
        0
176
     0
 62
    18
176
     0
 90
       50
176
     0
 90
        3
176
     0
 62
     5
420
      255
176
     0
290
     0
176
     1
 90
       50
176
     0
 90
       50
176
     0
 90
       50
176
     0
290
     0
176
     1
 90
       50
176
     0
 62
   256
176
     0
 40
1.0
176
     0
 90
        2
176
     0
  1
strokes_ogs.tif
176
     0
290
     0
176
     1
 40
1.0
176
     0
 40
1.0
176
     0
  0
VISUALSTYLE
  5
49E
102
{ACAD_REACTORS
330
48F
102
}
330
48F
100
AcDbVisualStyle
  2
Facepattern
 70
    15
177
     3
291
     1
 70
    58
 90
        2
176
     1
 90
        2
176
     1
 90
        0
176
     1
 90
        0
176
     1
 40
0.6
176
     1
 40
30.0
176
     1
 62
     7
420
 16777215
176
     1
 90
        1
176
     1
 90
        4
176
     1
 62
     7
176
     1
 62
   257
176
     1
 90
        1
176
     1
 90
        1
176
     1
 40
1.0
176
     1
 90
        8
176
     1
 62
     7
176
     1
 40
1.0
176
     1
 90
        1
176
     1
 90
        6
176
     1
 90
        2
176
     1
 62
     7
176
     1
 90
        5
176
     1
 90
        0
176
     1
 90
        0
176
     1
290
     0
176
     1
 90
        1
176
     1
 40
0.0
176
     1
 90
        0
176
     1
290
     0
176
     1
290
     1
176
     1
290
     1
176
     1
290
     0
176
     1
290
     0
176
     1
290
     0
176
     1
290
     0
176
     1
290
     0
176
     1
290
     0
176
     1
 90
       50
176
     1
 40
0.0
176
     1
 40
1.0
176
     1
 90
        0
176
     1
 62
    18
176
     1
 90
       50
176
     1
 90
        3
176
     1
 62
     5
420
      255
176
     1
290
     0
176
     1
 90
       50
176
     1
 90
       50
176
     1
 90
       50
176
     1
290
     0
176
     1
 90
       50
176
     1
 62
   256
176
     0
 40
1.0
176
     0
 90
        2
176
     1
  1
strokes_ogs.tif
176
     1
290
     0
176
     1
 40
1.0
176
     1
 40
1.0
176
     1
  0
VISUALSTYLE
  5
490
102
{ACAD_REACTORS
330
48F
102
}
330
48F
100
AcDbVisualStyle
  2
Flat
 70
     0
177
     3
291
     1
 70
    58
 90
        2
176
     1
 90
        1
176
     1
 90
        1
176
     1
 90
        2
176
     1
 40
0.6
176
     1
 40
30.0
176
     1
 62
     7
420
 16777215
176
     1
 90
        0
176
     1
 90
        0
176
     1
 62
     7
176
     1
 62
   257
176
     1
 90
        1
176
     1
 90
        1
176
     1
 40
1.0
176
     1
 90
        8
176
     1
 62
     7
176
     1
 40
1.0
176
     1
 90
        1
176
     1
 90
        6
176
     1
 90
        2
176
     1
 62
     7
176
     1
 90
        5
176
     1
 90
        0
176
     1
 90
        0
176
     1
290
     0
176
     1
 90
       13
176
     1
 40
0.0
176
     1
 90
        0
176
     1
290
     0
176
     1
290
     1
176
     1
290
     1
176
     1
290
     0
176
     1
290
     0
176
     1
290
     0
176
     1
290
     0
176
     1
290
     0
176
     1
290
     0
176
     1
 90
       50
176
     1
 40
0.0
176
     1
 40
1.0
176
     1
 90
        0
176
     1
 62
    18
176
     1
 90
       50
176
     1
 90
        3
176
     1
 62
     5
420
      255
176
     1
290
     0
176
     1
 90
       50
176
     1
 90
       50
176
     1
 90
       50
176
     1
290
     0
176
     1
 90
       50
176
     1
 62
   256
176
     0
 40
1.0
176
     0
 90
        2
176
     1
  1
strokes_ogs.tif
176
     1
290
     0
176
     1
 40
1.0
176
     1
 40
1.0
176
     1
  0
VISUALSTYLE
  5
491
102
{ACAD_REACTORS
330
48F
102
}
330
48F
100
AcDbVisualStyle
  2
FlatWithEdges
 70
     1
177
     3
291
     1
 70
    58
 90
        2
176
     1
 90
        1
176
     1
 90
        1
176
     1
 90
        2
176
     1
 40
0.6
176
     1
 40
30.0
176
     1
 62
     7
420
 16777215
176
     1
 90
        1
176
     1
 90
        0
176
     1
 62
     7
176
     1
 62
   257
176
     1
 90
        1
176
     1
 90
        1
176
     1
 40
1.0
176
     1
 90
        0
176
     1
 62
   257
176
     1
 40
1.0
176
     1
 90
        1
176
     1
 90
        6
176
     1
 90
        2
176
     1
 62
     7
176
     1
 90
        5
176
     1
 90
        0
176
     1
 90
        0
176
     1
290
     0
176
     1
 90
       13
176
     1
 40
0.0
176
     1
 90
        0
176
     1
290
     0
176
     1
290
     1
176
     1
290
     1
176
     1
290
     0
176
     1
290
     0
176
     1
290
     0
176
     1
290
     0
176
     1
290
     0
176
     1
290
     0
176
     1
 90
       50
176
     1
 40
0.0
176
     1
 40
1.0
176
     1
 90
        0
176
     1
 62
    18
176
     1
 90
       50
176
     1
 90
        3
176
     1
 62
     5
420
      255
176
     1
290
     0
176
     1
 90
       50
176
     1
 90
       50
176
     1
 90
       50
176
     1
290
     0
176
     1
 90
       50
176
     1
 62
   256
176
     0
 40
1.0
176
     0
 90
        2
176
     1
  1
strokes_ogs.tif
176
     1
290
     0
176
     1
 40
1.0
176
     1
 40
1.0
176
     1
  0
VISUALSTYLE
  5
492
102
{ACAD_REACTORS
330
48F
102
}
330
48F
100
AcDbVisualStyle
  2
Gouraud
 70
     2
177
     3
291
     1
 70
    58
 90
        2
176
     1
 90
        2
176
     1
 90
        1
176
     1
 90
        2
176
     1
 40
0.6
176
     1
 40
30.0
176
     1
 62
     7
420
 16777215
176
     1
 90
        0
176
     1
 90
        0
176
     1
 62
     7
176
     1
 62
   257
176
     1
 90
        1
176
     1
 90
        1
176
     1
 40
1.0
176
     1
 90
        0
176
     1
 62
     7
176
     1
 40
1.0
176
     1
 90
        1
176
     1
 90
        6
176
     1
 90
        2
176
     1
 62
     7
176
     1
 90
        5
176
     1
 90
        0
176
     1
 90
        0
176
     1
290
     0
176
     1
 90
       13
176
     1
 40
0.0
176
     1
 90
        0
176
     1
290
     0
176
     1
290
     1
176
     1
290
     1
176
     1
290
     0
176
     1
290
     0
176
     1
290
     0
176
     1
290
     0
176
     1
290
     0
176
     1
290
     0
176
     1
 90
       50
176
     1
 40
0.0
176
     1
 40
1.0
176
     1
 90
        0
176
     1
 62
    18
176
     1
 90
       50
176
     1
 90
        3
176
     1
 62
     5
420
      255
176
     1
290
     0
176
     1
 90
       50
176
     1
 90
       50
176
     1
 90
       50
176
     1
290
     0
176
     1
 90
       50
176
     1
 62
   256
176
     0
 40
1.0
176
     0
 90
        2
176
     1
  1
strokes_ogs.tif
176
     1
290
     0
176
     1
 40
1.0
176
     1
 40
1.0
176
     1
  0
VISUALSTYLE
  5
493
102
{ACAD_REACTORS
330
48F
102
}
330
48F
100
AcDbVisualStyle
  2
GouraudWithEdges
 70
     3
177
     3
291
     1
 70
    58
 90
        2
176
     1
 90
        2
176
     1
 90
        1
176
     1
 90
        2
176
     1
 40
0.6
176
     1
 40
30.0
176
     1
 62
     7
420
 16777215
176
     1
 90
        1
176
     1
 90
        0
176
     1
 62
     7
176
     1
 62
   257
176
     1
 90
        1
176
     1
 90
        1
176
     1
 40
1.0
176
     1
 90
        0
176
     1
 62
   257
176
     1
 40
1.0
176
     1
 90
        1
176
     1
 90
        6
176
     1
 90
        2
176
     1
 62
     7
176
     1
 90
        5
176
     1
 90
        0
176
     1
 90
        0
176
     1
290
     0
176
     1
 90
       13
176
     1
 40
0.0
176
     1
 90
        0
176
     1
290
     0
176
     1
290
     1
176
     1
290
     1
176
     1
290
     0
176
     1
290
     0
176
     1
290
     0
176
     1
290
     0
176
     1
290
     0
176
     1
290
     0
176
     1
 90
       50
176
     1
 40
0.0
176
     1
 40
1.0
176
     1
 90
        0
176
     1
 62
    18
176
     1
 90
       50
176
     1
 90
        3
176
     1
 62
     5
420
      255
176
     1
290
     0
176
     1
 90
       50
176
     1
 90
       50
176
     1
 90
       50
176
     1
290
     0
176
     1
 90
       50
176
     1
 62
   256
176
     0
 40
1.0
176
     0
 90
        2
176
     1
  1
strokes_ogs.tif
176
     1
290
     0
176
     1
 40
1.0
176
     1
 40
1.0
176
     1
  0
VISUALSTYLE
  5
497
102
{ACAD_REACTORS
330
48F
102
}
330
48F
100
AcDbVisualStyle
  2
Hidden
 70
     6
177
     3
291
     0
 70
    58
 90
        1
176
     1
 90
        2
176
     1
 90
        2
176
     1
 90
        0
176
     1
 40
0.6
176
     1
 40
30.0
176
     1
 62
     7
420
 16777215
176
     1
 90
        2
176
     1
 90
        2
176
     1
 62
     7
176
     1
 62
   257
176
     1
 90
        2
176
     1
 90
        1
176
     1
 40
40.0
176
     1
 90
        0
176
     1
 62
   257
176
     1
 40
1.0
176
     1
 90
        1
176
     1
 90
        6
176
     1
 90
        2
176
     1
 62
     7
176
     1
 90
        3
176
     1
 90
        0
176
     1
 90
        0
176
     1
290
     0
176
     1
 90
        1
176
     1
 40
0.0
176
     1
 90
        0
176
     1
290
     0
176
     1
290
     1
176
     1
290
     1
176
     1
290
     0
176
     1
290
     0
176
     1
290
     0
176
     1
290
     0
176
     1
290
     0
176
     1
290
     0
176
     1
 90
       50
176
     1
 40
0.0
176
     1
 40
1.0
176
     1
 90
        0
176
     1
 62
    18
176
     1
 90
       50
176
     1
 90
        3
176
     1
 62
     5
420
      255
176
     1
290
     0
176
     1
 90
       50
176
     1
 90
       50
176
     1
 90
       50
176
     1
290
     0
176
     1
 90
       50
176
     1
 62
   256
176
     0
 40
1.0
176
     0
 90
        2
176
     1
  1
strokes_ogs.tif
176
     1
290
     0
176
     1
 40
1.0
176
     1
 40
1.0
176
     1
  0
VISUALSTYLE
  5
4A5
102
{ACAD_REACTORS
330
48F
102
}
330
48F
100
AcDbVisualStyle
  2
JitterOff
 70
    20
177
     3
291
     1
 70
    58
 90
        2
176
     0
 90
        2
176
     0
 90
        0
176
     0
 90
        0
176
     0
 40
0.6
176
     0
 40
30.0
176
     0
 62
     7
420
 16777215
176
     0
 90
        1
176
     0
 90
        4
176
     0
 62
     7
176
     0
 62
   257
176
     0
 90
        1
176
     0
 90
        1
176
     0
 40
1.0
176
     0
 90
       10
176
     2
 62
     7
176
     0
 40
1.0
176
     0
 90
        1
176
     0
 90
        6
176
     0
 90
        2
176
     0
 62
     7
176
     0
 90
        5
176
     0
 90
        0
176
     0
 90
        0
176
     0
290
     0
176
     0
 90
        1
176
     0
 40
0.0
176
     0
 90
        0
176
     0
290
     0
176
     1
290
     1
176
     1
290
     1
176
     1
290
     0
176
     1
290
     0
176
     1
290
     0
176
     1
290
     0
176
     1
290
     0
176
     1
290
     0
176
     1
 90
       50
176
     0
 40
0.0
176
     0
 40
1.0
176
     0
 90
        0
176
     0
 62
    18
176
     0
 90
       50
176
     0
 90
        3
176
     0
 62
     5
420
      255
176
     0
290
     0
176
     1
 90
       50
176
     0
 90
       50
176
     0
 90
       50
176
     0
290
     0
176
     1
 90
       50
176
     0
 62
   256
176
     0
 40
1.0
176
     0
 90
        2
176
     0
  1
strokes_ogs.tif
176
     0
290
     0
176
     1
 40
1.0
176
     0
 40
1.0
176
     0
  0
VISUALSTYLE
  5
49D
102
{ACAD_REACTORS
330
48F
102
}
330
48F
100
AcDbVisualStyle
  2
Linepattern
 70
    14
177
     3
291
     1
 70
    58
 90
        2
176
     1
 90
        2
176
     1
 90
        0
176
     1
 90
        0
176
     1
 40
0.6
176
     1
 40
30.0
176
     1
 62
     7
420
 16777215
176
     1
 90
        1
176
     1
 90
        4
176
     1
 62
     7
176
     1
 62
   257
176
     1
 90
        7
176
     1
 90
        7
176
     1
 40
1.0
176
     1
 90
        8
176
     1
 62
     7
176
     1
 40
1.0
176
     1
 90
        1
176
     1
 90
        6
176
     1
 90
        2
176
     1
 62
     7
176
     1
 90
        5
176
     1
 90
        0
176
     1
 90
        0
176
     1
290
     0
176
     1
 90
        1
176
     1
 40
0.0
176
     1
 90
        0
176
     1
290
     0
176
     1
290
     1
176
     1
290
     1
176
     1
290
     0
176
     1
290
     0
176
     1
290
     0
176
     1
290
     0
176
     1
290
     0
176
     1
290
     0
176
     1
 90
       50
176
     1
 40
0.0
176
     1
 40
1.0
176
     1
 90
        0
176
     1
 62
    18
176
     1
 90
       50
176
     1
 90
        3
176
     1
 62
     5
420
      255
176
     1
290
     0
176
     1
 90
       50
176
     1
 90
       50
176
     1
 90
       50
176
     1
290
     0
176
     1
 90
       50
176
     1
 62
   256
176
     0
 40
1.0
176
     0
 90
        2
176
     1
  1
strokes_ogs.tif
176
     1
290
     0
176
     1
 40
1.0
176
     1
 40
1.0
176
     1
  0
VISUALSTYLE
  5
4A6
102
{ACAD_REACTORS
330
48F
102
}
330
48F
100
AcDbVisualStyle
  2
OverhangOff
 70
    21
177
     3
291
     1
 70
    58
 90
        2
176
     0
 90
        2
176
     0
 90
        0
176
     0
 90
        0
176
     0
 40
0.6
176
     0
 40
30.0
176
     0
 62
     7
420
 16777215
176
     0
 90
        1
176
     0
 90
        4
176
     0
 62
     7
176
     0
 62
   257
176
     0
 90
        1
176
     0
 90
        1
176
     0
 40
1.0
176
     0
 90
        9
176
     2
 62
     7
176
     0
 40
1.0
176
     0
 90
        1
176
     0
 90
        6
176
     0
 90
        2
176
     0
 62
     7
176
     0
 90
        5
176
     0
 90
        0
176
     0
 90
        0
176
     0
290
     0
176
     0
 90
        1
176
     0
 40
0.0
176
     0
 90
        0
176
     0
290
     0
176
     1
290
     1
176
     1
290
     1
176
     1
290
     0
176
     1
290
     0
176
     1
290
     0
176
     1
290
     0
176
     1
290
     0
176
     1
290
     0
176
     1
 90
       50
176
     0
 40
0.0
176
     0
 40
1.0
176
     0
 90
        0
176
     0
 62
    18
176
     0
 90
       50
176
     0
 90
        3
176
     0
 62
     5
420
      255
176
     0
290
     0
176
     1
 90
       50
176
     0
 90
       50
176
     0
 90
       50
176
     0
290
     0
176
     1
 90
       50
176
     0
 62
   256
176
     0
 40
1.0
176
     0
 90
        2
176
     0
  1
strokes_ogs.tif
176
     0
290
     0
176
     1
 40
1.0
176
     0
 40
1.0
176
     0
  0
VISUALSTYLE
  5
499
102
{ACAD_REACTORS
330
48F
102
}
330
48F
100
AcDbVisualStyle
  2
Realistic
 70
     8
177
     3
291
     0
 70
    58
 90
        2
176
     1
 90
        3
176
     1
 90
        0
176
     1
 90
        2
176
     1
 40
0.6
176
     1
 40
30.0
176
     1
 62
     7
420
 16777215
176
     1
 90
        0
176
     1
 90
        0
176
     1
 62
     7
176
     1
 62
   257
176
     1
 90
        1
176
     1
 90
        1
176
     1
 40
1.0
176
     1
 90
        8
176
     1
 62
   257
176
     1
 40
1.0
176
     1
 90
        1
176
     1
 90
        6
176
     1
 90
        2
176
     1
 62
     7
176
     1
 90
        3
176
     1
 90
        0
176
     1
 90
        0
176
     1
290
     0
176
     1
 90
       13
176
     1
 40
0.0
176
     1
 90
        0
176
     1
290
     0
176
     1
290
     1
176
     1
290
     1
176
     1
290
     0
176
     1
290
     0
176
     1
290
     0
176
     1
290
     0
176
     1
290
     0
176
     1
290
     0
176
     1
 90
       50
176
     1
 40
0.0
176
     1
 40
1.0
176
     1
 90
        0
176
     1
 62
    18
176
     1
 90
       50
176
     1
 90
        3
176
     1
 62
     5
420
      255
176
     1
290
     0
176
     1
 90
       50
176
     1
 90
       50
176
     1
 90
       50
176
     1
290
     0
176
     1
 90
       50
176
     1
 62
   256
176
     0
 40
1.0
176
     0
 90
        2
176
     1
  1
strokes_ogs.tif
176
     1
290
     0
176
     1
 40
1.0
176
     1
 40
1.0
176
     1
  0
VISUALSTYLE
  5
4A4
102
{ACAD_REACTORS
330
48F
102
}
330
48F
100
AcDbVisualStyle
  2
Shaded
 70
    27
177
     3
291
     0
 70
    58
 90
        2
176
     1
 90
        2
176
     1
 90
        1
176
     1
 90
        2
176
     1
 40
0.6
176
     1
 40
30.0
176
     1
 62
     7
420
 16777215
176
     1
 90
        0
176
     1
 90
        4
176
     1
 62
     7
176
     1
 62
   257
176
     1
 90
        1
176
     1
 90
        1
176
     1
 40
1.0
176
     1
 90
        8
176
     1
 62
   257
176
     1
 40
1.0
176
     1
 90
        1
176
     1
 90
        6
176
     1
 90
        2
176
     1
 62
     8
420
  7895160
176
     1
 90
        3
176
     1
 90
        0
176
     1
 90
        0
176
     1
290
     0
176
     1
 90
        5
176
     1
 40
0.0
176
     1
 90
        0
176
     1
290
     0
176
     1
290
     1
176
     1
290
     1
176
     1
290
     0
176
     1
290
     0
176
     1
290
     0
176
     1
290
     0
176
     1
290
     0
176
     1
290
     0
176
     1
 90
       50
176
     1
 40
0.0
176
     1
 40
1.0
176
     1
 90
        0
176
     1
 62
    18
176
     1
 90
       50
176
     1
 90
        3
176
     1
 62
     5
420
      255
176
     1
290
     0
176
     1
 90
       50
176
     1
 90
       50
176
     1
 90
       50
176
     1
290
     0
176
     1
 90
       50
176
     1
 62
   256
176
     0
 40
1.0
176
     0
 90
        2
176
     1
  1
strokes_ogs.tif
176
     1
290
     0
176
     1
 40
1.0
176
     1
 40
1.0
176
     1
  0
VISUALSTYLE
  5
4A3
102
{ACAD_REACTORS
330
48F
102
}
330
48F
100
AcDbVisualStyle
  2
Shaded with edges
 70
    26
177
     3
291
     0
 70
    58
 90
        2
176
     1
 90
        2
176
     1
 90
        1
176
     1
 90
        2
176
     1
 40
0.6
176
     1
 40
30.0
176
     1
 62
     7
420
 16777215
176
     1
 90
        1
176
     1
 90
        2
176
     1
 62
     7
176
     1
 62
   257
176
     1
 90
        2
176
     1
 90
        1
176
     1
 40
1.0
176
     1
 90
        8
176
     1
 62
   257
176
     1
 40
1.0
176
     1
 90
        1
176
     1
 90
        6
176
     1
 90
        2
176
     1
 62
     7
176
     1
 90
        3
176
     1
 90
        0
176
     1
 90
        0
176
     1
290
     0
176
     1
 90
        5
176
     1
 40
0.0
176
     1
 90
        0
176
     1
290
     0
176
     1
290
     1
176
     1
290
     1
176
     1
290
     0
176
     1
290
     0
176
     1
290
     0
176
     1
290
     0
176
     1
290
     0
176
     1
290
     0
176
     1
 90
       50
176
     1
 40
0.0
176
     1
 40
1.0
176
     1
 90
        0
176
     1
 62
    18
176
     1
 90
       50
176
     1
 90
        3
176
     1
 62
     5
420
      255
176
     1
290
     0
176
     1
 90
       50
176
     1
 90
       50
176
     1
 90
       50
176
     1
290
     0
176
     1
 90
       50
176
     1
 62
   256
176
     0
 40
1.0
176
     0
 90
        2
176
     1
  1
strokes_ogs.tif
176
     1
290
     0
176
     1
 40
1.0
176
     1
 40
1.0
176
     1
  0
VISUALSTYLE
  5
4A0
102
{ACAD_REACTORS
330
48F
102
}
330
48F
100
AcDbVisualStyle
  2
Shades of Gray
 70
    23
177
     3
291
     0
 70
    58
 90
        2
176
     1
 90
        2
176
     1
 90
        3
176
     1
 90
        0
176
     1
 40
0.6
176
     1
 40
30.0
176
     1
 62
     7
420
 16777215
176
     1
 90
        2
176
     1
 90
        2
176
     1
 62
     7
176
     1
 62
     7
176
     1
 90
        1
176
     1
 90
        1
176
     1
 40
40.0
176
     1
 90
        8
176
     1
 62
     7
176
     1
 40
1.0
176
     1
 90
        1
176
     1
 90
        6
176
     1
 90
        2
176
     1
 62
     7
176
     1
 90
        3
176
     1
 90
        0
176
     1
 90
        0
176
     1
290
     0
176
     1
 90
        1
176
     1
 40
0.0
176
     1
 90
        0
176
     1
290
     0
176
     1
290
     1
176
     1
290
     1
176
     1
290
     0
176
     1
290
     0
176
     1
290
     0
176
     1
290
     0
176
     1
290
     0
176
     1
290
     0
176
     1
 90
       50
176
     1
 40
0.0
176
     1
 40
1.0
176
     1
 90
        0
176
     1
 62
    18
176
     1
 90
       50
176
     1
 90
        3
176
     1
 62
     5
420
      255
176
     1
290
     0
176
     1
 90
       50
176
     1
 90
       50
176
     1
 90
       50
176
     1
290
     0
176
     1
 90
       50
176
     1
 62
   256
176
     0
 40
1.0
176
     0
 90
        2
176
     1
  1
strokes_ogs.tif
176
     1
290
     0
176
     1
 40
1.0
176
     1
 40
1.0
176
     1
  0
VISUALSTYLE
  5
4A1
102
{ACAD_REACTORS
330
48F
102
}
330
48F
100
AcDbVisualStyle
  2
Sketchy
 70
    24
177
     3
291
     0
 70
    58
 90
        1
176
     1
 90
        2
176
     1
 90
        2
176
     1
 90
        0
176
     1
 40
0.6
176
     1
 40
30.0
176
     1
 62
     7
420
 16777215
176
     1
 90
        2
176
     1
 90
        2
176
     1
 62
     7
176
     1
 62
     7
176
     1
 90
        1
176
     1
 90
        1
176
     1
 40
40.0
176
     1
 90
       11
176
     1
 62
     7
176
     1
 40
1.0
176
     1
 90
        1
176
     1
 90
        6
176
     1
 90
        2
176
     1
 62
     7
176
     1
 90
        6
176
     1
 90
        0
176
     1
 90
        0
176
     1
290
     0
176
     1
 90
        1
176
     1
 40
0.0
176
     1
 90
        0
176
     1
290
     0
176
     1
290
     1
176
     1
290
     1
176
     1
290
     0
176
     1
290
     0
176
     1
290
     0
176
     1
290
     0
176
     1
290
     0
176
     1
290
     0
176
     1
 90
       50
176
     1
 40
0.0
176
     1
 40
1.0
176
     1
 90
        0
176
     1
 62
    18
176
     1
 90
       50
176
     1
 90
        3
176
     1
 62
     5
420
      255
176
     1
290
     0
176
     1
 90
       50
176
     1
 90
       50
176
     1
 90
       50
176
     1
290
     0
176
     1
 90
       50
176
     1
 62
   256
176
     0
 40
1.0
176
     0
 90
        2
176
     1
  1
strokes_ogs.tif
176
     1
290
     0
176
     1
 40
1.0
176
     1
 40
1.0
176
     1
  0
VISUALSTYLE
  5
49C
102
{ACAD_REACTORS
330
48F
102
}
330
48F
100
AcDbVisualStyle
  2
Thicken
 70
    13
177
     3
291
     1
 70
    58
 90
        2
176
     1
 90
        2
176
     1
 90
        0
176
     1
 90
        0
176
     1
 40
0.6
176
     1
 40
30.0
176
     1
 62
     7
420
 16777215
176
     1
 90
        1
176
     1
 90
        4
176
     1
 62
     7
176
     1
 62
   257
176
     1
 90
        1
176
     1
 90
        1
176
     1
 40
1.0
176
     1
 90
       12
176
     1
 62
     7
176
     1
 40
1.0
176
     1
 90
        1
176
     1
 90
        6
176
     1
 90
        2
176
     1
 62
     7
176
     1
 90
        5
176
     1
 90
        0
176
     1
 90
        0
176
     1
290
     0
176
     1
 90
        1
176
     1
 40
0.0
176
     1
 90
        0
176
     1
290
     0
176
     1
290
     1
176
     1
290
     1
176
     1
290
     0
176
     1
290
     0
176
     1
290
     0
176
     1
290
     0
176
     1
290
     0
176
     1
290
     0
176
     1
 90
       50
176
     1
 40
0.0
176
     1
 40
1.0
176
     1
 90
        0
176
     1
 62
    18
176
     1
 90
       50
176
     1
 90
        3
176
     1
 62
     5
420
      255
176
     1
290
     0
176
     1
 90
       50
176
     1
 90
       50
176
     1
 90
       50
176
     1
290
     0
176
     1
 90
       50
176
     1
 62
   256
176
     0
 40
1.0
176
     0
 90
        2
176
     1
  1
strokes_ogs.tif
176
     1
290
     0
176
     1
 40
1.0
176
     1
 40
1.0
176
     1
  0
VISUALSTYLE
  5
496
102
{ACAD_REACTORS
330
48F
102
}
330
48F
100
AcDbVisualStyle
  2
Wireframe
 70
     5
177
     3
291
     0
 70
    58
 90
        0
176
     1
 90
        2
176
     1
 90
        0
176
     1
 90
        0
176
     1
 40
0.6
176
     1
 40
30.0
176
     1
 62
     7
420
 16777215
176
     1
 90
        1
176
     1
 90
        4
176
     1
 62
     7
176
     1
 62
   257
176
     1
 90
        1
176
     1
 90
        1
176
     1
 40
1.0
176
     1
 90
        0
176
     1
 62
   257
176
     1
 40
1.0
176
     1
 90
        1
176
     1
 90
        6
176
     1
 90
        2
176
     1
 62
     7
176
     1
 90
        3
176
     1
 90
        0
176
     1
 90
        0
176
     1
290
     0
176
     1
 90
        1
176
     1
 40
0.0
176
     1
 90
        0
176
     1
290
     0
176
     1
290
     1
176
     1
290
     1
176
     1
290
     0
176
     1
290
     0
176
     1
290
     0
176
     1
290
     0
176
     1
290
     0
176
     1
290
     0
176
     1
 90
       50
176
     1
 40
0.0
176
     1
 40
1.0
176
     1
 90
        0
176
     1
 62
    18
176
     1
 90
       50
176
     1
 90
        3
176
     1
 62
     5
420
      255
176
     1
290
     0
176
     1
 90
       50
176
     1
 90
       50
176
     1
 90
       50
176
     1
290
     0
176
     1
 90
       50
176
     1
 62
   256
176
     0
 40
1.0
176
     0
 90
        2
176
     1
  1
strokes_ogs.tif
176
     1
290
     0
176
     1
 40
1.0
176
     1
 40
1.0
176
     1
  0
VISUALSTYLE
  5
4A2
102
{ACAD_REACTORS
330
48F
102
}
330
48F
100
AcDbVisualStyle
  2
X-Ray
 70
    25
177
     3
291
     0
 70
    58
 90
        2
176
     1
 90
        2
176
     1
 90
        1
176
     1
 90
        1
176
     1
 40
0.5
176
     1
 40
30.0
176
     1
 62
     7
420
 16777215
176
     1
 90
        1
176
     1
 90
        0
176
     1
 62
     7
176
     1
 62
   257
176
     1
 90
        1
176
     1
 90
        1
176
     1
 40
1.0
176
     1
 90
        8
176
     1
 62
     7
176
     1
 40
1.0
176
     1
 90
        1
176
     1
 90
        6
176
     1
 90
        2
176
     1
 62
     7
176
     1
 90
        3
176
     1
 90
        0
176
     1
 90
        0
176
     1
290
     0
176
     1
 90
       13
176
     1
 40
0.0
176
     1
 90
        0
176
     1
290
     0
176
     1
290
     1
176
     1
290
     1
176
     1
290
     0
176
     1
290
     0
176
     1
290
     0
176
     1
290
     0
176
     1
290
     0
176
     1
290
     0
176
     1
 90
       50
176
     1
 40
0.0
176
     1
 40
1.0
176
     1
 90
        0
176
     1
 62
    18
176
     1
 90
       50
176
     1
 90
        3
176
     1
 62
     5
420
      255
176
     1
290
     0
176
     1
 90
       50
176
     1
 90
       50
176
     1
 90
       50
176
     1
290
     0
176
     1
 90
       50
176
     1
 62
   256
176
     0
 40
1.0
176
     0
 90
        2
176
     1
  1
strokes_ogs.tif
176
     1
290
     0
176
     1
 40
1.0
176
     1
 40
1.0
176
     1
  0
DICTIONARYVAR
  5
4DE
102
{ACAD_REACTORS
330
4D8
102
}
330
4D8
100
DictionaryVariables
280
     0
  1
1:1
  0
DICTIONARYVAR
  5
4DA
102
{ACAD_REACTORS
330
4D8
102
}
330
4D8
100
DictionaryVariables
280
     0
  1
STANDARD
  0
DICTIONARYVAR
  5
4D9
102
{ACAD_REACTORS
330
4D8
102
}
330
4D8
100
DictionaryVariables
280
     0
  1
STANDARD
  0
DICTIONARYVAR
  5
4DB
102
{ACAD_REACTORS
330
4D8
102
}
330
4D8
100
DictionaryVariables
280
     0
  1
Imperial24
  0
DICTIONARYVAR
  5
4DC
102
{ACAD_REACTORS
330
4D8
102
}
330
4D8
100
DictionaryVariables
280
     0
  1
Imperial24
  0
DICTIONARYVAR
  5
4E0
102
{ACAD_REACTORS
330
4D8
102
}
330
4D8
100
DictionaryVariables
280
     0
  1
1
  0
DICTIONARYVAR
  5
4E1
102
{ACAD_REACTORS
330
4D8
102
}
330
4D8
100
DictionaryVariables
280
     0
  1
15
  0
DICTIONARYVAR
  5
4DF
102
{ACAD_REACTORS
330
4D8
102
}
330
4D8
100
DictionaryVariables
280
     0
  1
0
  0
DICTIONARYVAR
  5
4DD
102
{ACAD_REACTORS
330
4D8
102
}
330
4D8
100
DictionaryVariables
280
     0
  1
0
  0
DICTIONARY
  5
480
330
47F
100
AcDbDictionary
280
     1
281
     1
  3
BUMPTILE
360
482
  3
DIFFUSETILE
360
481
  3
OPACITYTILE
360
485
  3
REFLECTIONTILE
360
484
  3
REFRACTIONTILE
360
486
  3
SPECULARTILE
360
483
  0
DICTIONARY
  5
478
330
477
100
AcDbDictionary
280
     1
281
     1
  3
BUMPTILE
360
47A
  3
DIFFUSETILE
360
479
  3
OPACITYTILE
360
47D
  3
REFLECTIONTILE
360
47C
  3
REFRACTIONTILE
360
47E
  3
SPECULARTILE
360
47B
  0
DICTIONARY
  5
488
330
487
100
AcDbDictionary
280
     1
281
     1
  3
BUMPTILE
360
48A
  3
DIFFUSETILE
360
489
  3
OPACITYTILE
360
48D
  3
REFLECTIONTILE
360
48C
  3
REFRACTIONTILE
360
48E
  3
SPECULARTILE
360
48B
  0
DICTIONARY
  5
4E2
330
4AB
100
AcDbDictionary
280
     1
281
     1
  3
ACAD_ROUNDTRIP_2008_TABLESTYLE_CELLSTYLEMAP
360
4E8
  0
XRECORD
  5
482
102
{ACAD_REACTORS
330
480
102
}
330
480
100
AcDbXrecord
280
     1
270
     1
271
     1
  0
XRECORD
  5
481
102
{ACAD_REACTORS
330
480
102
}
330
480
100
AcDbXrecord
280
     1
270
     1
271
     1
  0
XRECORD
  5
485
102
{ACAD_REACTORS
330
480
102
}
330
480
100
AcDbXrecord
280
     1
270
     1
271
     1
  0
XRECORD
  5
484
102
{ACAD_REACTORS
330
480
102
}
330
480
100
AcDbXrecord
280
     1
270
     1
271
     1
  0
XRECORD
  5
486
102
{ACAD_REACTORS
330
480
102
}
330
480
100
AcDbXrecord
280
     1
270
     1
271
     1
  0
XRECORD
  5
483
102
{ACAD_REACTORS
330
480
102
}
330
480
100
AcDbXrecord
280
     1
270
     1
271
     1
  0
XRECORD
  5
47A
102
{ACAD_REACTORS
330
478
102
}
330
478
100
AcDbXrecord
280
     1
270
     1
271
     1
  0
XRECORD
  5
479
102
{ACAD_REACTORS
330
478
102
}
330
478
100
AcDbXrecord
280
     1
270
     1
271
     1
  0
XRECORD
  5
47D
102
{ACAD_REACTORS
330
478
102
}
330
478
100
AcDbXrecord
280
     1
270
     1
271
     1
  0
XRECORD
  5
47C
102
{ACAD_REACTORS
330
478
102
}
330
478
100
AcDbXrecord
280
     1
270
     1
271
     1
  0
XRECORD
  5
47E
102
{ACAD_REACTORS
330
478
102
}
330
478
100
AcDbXrecord
280
     1
270
     1
271
     1
  0
XRECORD
  5
47B
102
{ACAD_REACTORS
330
478
102
}
330
478
100
AcDbXrecord
280
     1
270
     1
271
     1
  0
XRECORD
  5
48A
102
{ACAD_REACTORS
330
488
102
}
330
488
100
AcDbXrecord
280
     1
270
     1
271
     1
  0
XRECORD
  5
489
102
{ACAD_REACTORS
330
488
102
}
330
488
100
AcDbXrecord
280
     1
270
     1
271
     1
  0
XRECORD
  5
48D
102
{ACAD_REACTORS
330
488
102
}
330
488
100
AcDbXrecord
280
     1
270
     1
271
     1
  0
XRECORD
  5
48C
102
{ACAD_REACTORS
330
488
102
}
330
488
100
AcDbXrecord
280
     1
270
     1
271
     1
  0
XRECORD
  5
48E
102
{ACAD_REACTORS
330
488
102
}
330
488
100
AcDbXrecord
280
     1
270
     1
271
     1
  0
XRECORD
  5
48B
102
{ACAD_REACTORS
330
488
102
}
330
488
100
AcDbXrecord
280
     1
270
     1
271
     1
  0
CELLSTYLEMAP
  5
4E8
102
{ACAD_REACTORS
330
4E2
102
}
330
4E2
100
AcDbCellStyleMap
 90
        3
300
CELLSTYLE
  1
TABLEFORMAT_BEGIN
 90
        5
170
     1
 91
        0
 92
    32768
 62
   257
 93
        1
300
CONTENTFORMAT
  1
CONTENTFORMAT_BEGIN
 90
        0
 91
        0
 92
      512
 93
        0
300

 40
0.0
140
1.0
 94
        5
 62
     0
340
473
144
0.25
309
CONTENTFORMAT_END
171
     1
301
MARGIN
  1
CELLMARGIN_BEGIN
 40
0.06
 40
0.06
 40
0.06
 40
0.06
 40
0.18
 40
0.18
309
CELLMARGIN_END
 94
        6
 95
        1
302
GRIDFORMAT
  1
GRIDFORMAT_BEGIN
 90
        0
 91
        1
 62
     0
 92
       -2
340
0
 93
        0
 40
0.045
309
GRIDFORMAT_END
 95
        2
302
GRIDFORMAT
  1
GRIDFORMAT_BEGIN
 90
        0
 91
        1
 62
     0
 92
       -2
340
0
 93
        0
 40
0.045
309
GRIDFORMAT_END
 95
        4
302
GRIDFORMAT
  1
GRIDFORMAT_BEGIN
 90
        0
 91
        1
 62
     0
 92
       -2
340
0
 93
        0
 40
0.045
309
GRIDFORMAT_END
 95
        8
302
GRIDFORMAT
  1
GRIDFORMAT_BEGIN
 90
        0
 91
        1
 62
     0
 92
       -2
340
0
 93
        0
 40
0.045
309
GRIDFORMAT_END
 95
       16
302
GRIDFORMAT
  1
GRIDFORMAT_BEGIN
 90
        0
 91
        1
 62
     0
 92
       -2
340
0
 93
        0
 40
0.045
309
GRIDFORMAT_END
 95
       32
302
GRIDFORMAT
  1
GRIDFORMAT_BEGIN
 90
        0
 91
        1
 62
     0
 92
       -2
340
0
 93
        0
 40
0.045
309
GRIDFORMAT_END
309
TABLEFORMAT_END
  1
CELLSTYLE_BEGIN
 90
        1
 91
        1
300
_TITLE
309
CELLSTYLE_END
300
CELLSTYLE
  1
TABLEFORMAT_BEGIN
 90
        5
170
     1
 91
        0
 92
        0
 62
   257
 93
        1
300
CONTENTFORMAT
  1
CONTENTFORMAT_BEGIN
 90
        0
 91
        0
 92
      512
 93
        0
300

 40
0.0
140
1.0
 94
        5
 62
     0
340
473
144
0.18
309
CONTENTFORMAT_END
171
     1
301
MARGIN
  1
CELLMARGIN_BEGIN
 40
0.06
 40
0.06
 40
0.06
 40
0.06
 40
0.18
 40
0.18
309
CELLMARGIN_END
 94
        6
 95
        1
302
GRIDFORMAT
  1
GRIDFORMAT_BEGIN
 90
        0
 91
        1
 62
     0
 92
       -2
340
0
 93
        0
 40
0.045
309
GRIDFORMAT_END
 95
        2
302
GRIDFORMAT
  1
GRIDFORMAT_BEGIN
 90
        0
 91
        1
 62
     0
 92
       -2
340
0
 93
        0
 40
0.045
309
GRIDFORMAT_END
 95
        4
302
GRIDFORMAT
  1
GRIDFORMAT_BEGIN
 90
        0
 91
        1
 62
     0
 92
       -2
340
0
 93
        0
 40
0.045
309
GRIDFORMAT_END
 95
        8
302
GRIDFORMAT
  1
GRIDFORMAT_BEGIN
 90
        0
 91
        1
 62
     0
 92
       -2
340
0
 93
        0
 40
0.045
309
GRIDFORMAT_END
 95
       16
302
GRIDFORMAT
  1
GRIDFORMAT_BEGIN
 90
        0
 91
        1
 62
     0
 92
       -2
340
0
 93
        0
 40
0.045
309
GRIDFORMAT_END
 95
       32
302
GRIDFORMAT
  1
GRIDFORMAT_BEGIN
 90
        0
 91
        1
 62
     0
 92
       -2
340
0
 93
        0
 40
0.045
309
GRIDFORMAT_END
309
TABLEFORMAT_END
  1
CELLSTYLE_BEGIN
 90
        2
 91
        1
300
_HEADER
309
CELLSTYLE_END
300
CELLSTYLE
  1
TABLEFORMAT_BEGIN
 90
        5
170
     1
 91
        0
 92
        0
 62
   257
 93
        1
300
CONTENTFORMAT
  1
CONTENTFORMAT_BEGIN
 90
        0
 91
        0
 92
      512
 93
        0
300

 40
0.0
140
1.0
 94
        2
 62
     0
340
473
144
0.18
309
CONTENTFORMAT_END
171
     1
301
MARGIN
  1
CELLMARGIN_BEGIN
 40
0.06
 40
0.06
 40
0.06
 40
0.06
 40
0.18
 40
0.18
309
CELLMARGIN_END
 94
        6
 95
        1
302
GRIDFORMAT
  1
GRIDFORMAT_BEGIN
 90
        0
 91
        1
 62
     0
 92
       -2
340
0
 93
        0
 40
0.045
309
GRIDFORMAT_END
 95
        2
302
GRIDFORMAT
  1
GRIDFORMAT_BEGIN
 90
        0
 91
        1
 62
     0
 92
       -2
340
0
 93
        0
 40
0.045
309
GRIDFORMAT_END
 95
        4
302
GRIDFORMAT
  1
GRIDFORMAT_BEGIN
 90
        0
 91
        1
 62
     0
 92
       -2
340
0
 93
        0
 40
0.045
309
GRIDFORMAT_END
 95
        8
302
GRIDFORMAT
  1
GRIDFORMAT_BEGIN
 90
        0
 91
        1
 62
     0
 92
       -2
340
0
 93
        0
 40
0.045
309
GRIDFORMAT_END
 95
       16
302
GRIDFORMAT
  1
GRIDFORMAT_BEGIN
 90
        0
 91
        1
 62
     0
 92
       -2
340
0
 93
        0
 40
0.045
309
GRIDFORMAT_END
 95
       32
302
GRIDFORMAT
  1
GRIDFORMAT_BEGIN
 90
        0
 91
        1
 62
     0
 92
       -2
340
0
 93
        0
 40
0.045
309
GRIDFORMAT_END
309
TABLEFORMAT_END
  1
CELLSTYLE_BEGIN
 90
        3
 91
        2
300
_DATA
309
CELLSTYLE_END
  0
ENDSEC
  0
EOF
